Song name
# A B C D E F G H I J K L M N O P Q R S T U V W X Y Z

Rodriguez Silvio - Pequena Serenato Diurna tab

Chords:



       654321
Em   = x22000|| 
Ad   = x02323||   
Bd   = x04545|| 
Dd   = x06767|| 
Am7  = x02010|| 
B7   = x21202|| 
B7/f#= 201202|| 



Intro

Em-Ad-Bd-Dd
|---------------------------|
|---------------------------|
|---------------------------|
|----2-0--------------------|
|---------3-2---------------|
|---------------------------|
continues..
Am7-B7-B7/F# 

|------0---------0--------0--------0------0------0------0------|
|-----0---------0--------0--------0------0------0------0-------|
|----0---------0--------0--------0------0------0------0--------|
|---2---------0------------------------------------------------|
|---------------------3-------2------0---------------------0h1-|
|--------------------------------------------3------2----------|
continues..
Em-Am7-B7




Em
Vivo en un pais libre 
    Ad
Cual solamente puede ser libre
  Bd
En esta tierra 
    Dd 
En este instante

|---------------------------|
|---------------------------|
|---------------------------|
|----2-0--------------------|
|---------3-2---------------|
|---------------------------|

 Am7
Y soy feliz

Por que soy gigante
B7         B7F#
Amo a una mujer clara
        
que amo y me ama sin pedir nada o casi nada
 que no es lo mismo pero es igual
|------0---------0--------0--------0------0------0------0------|
|-----0---------0--------0--------0------0------0------0-------|
|----0---------0--------0--------0------0------0------0--------|
|---2---------0------------------------------------------------|
|---------------------3-------2------0---------------------0h1-|
|--------------------------------------------3------2----------|


Em-Am7-B7


Em
y si esto fuera poco 
    Ad
tengo mis cantos que poco a poco
  Bd
muelo y rehago
    Dd 
habitando el tiempo como la cuadra a un hombre despierto

|---------------------------|
|---------------------------|
|---------------------------|
|----2-0--------------------|
|---------3-2---------------|
|---------------------------|

 Am7
Y soy feliz


B7         B7F#
soy un hombre feliz
        
y quiero que me perdonen en este dia los muertos de mi felicidad
|------0---------0--------0--------0------0------0------0------|
|-----0---------0--------0--------0------0------0------0-------|
|----0---------0--------0--------0------0------0------0--------|
|---2---------0------------------------------------------------|
|---------------------3-------2------0---------------------0h1-|
|--------------------------------------------3------2----------|

Em-Am7-B7
.

B7
Soy feliz
B7         B7F#
Soy un hombre feliz

y quiero que me perdonen en este dia los muertos de mi felicidad
|------0---------0--------0--------0------0------0------0------|
|-----0---------0--------0--------0------0------0------0-------|
|----0---------0--------0--------0------0------0------0--------|
|---2---------0------------------------------------------------|
|---------------------3-------2------0---------------------0h1-|
|--------------------------------------------3------2----------|
Em-Am7-B7-Em

Well this is the ending part wich you must do an final Em 

Tap to rate this tab
# A B C D E F G H I J K L M N O P Q R S T U V W X Y Z