Guitaretab - guitar tabs
Song name
# A B C D E F G H I J K L M N O P Q R S T U V W X Y Z

Rodriguez Silvio - Quien Fuera tab

Intro

E-|-----------------------------------------------------------------
B-|---------3--------3----------------------3--------3--------------
G-|-------0--------0----0--------2--------0--------0----0--------2--
D-|-----4--------4--------4-2-2--4------4--------4--------4-2-2--4--
A-|-----------------------------------------------------------------
E-|--3--------3----------------------3------------------------------

E-|--------------------------------------------------------0-----2------
B-|--------3-----3------------3-----3--------3-------3---3-----3---3----
G-|------0-----0---0----0---0-----0--------0---0---0---0-----0-------0--
D-|----4-----4------------4-----4--------4-------4----------------------
A-|--3----------------0----------------2--------------------------------
E-|---------------------------------------------------------------------

E-|--------2-0---3-2-020---------------
B-|------3-----3---------3---0---------
G-|----0-------------------2---0-------
D-|--------------0---------------------
A-|-3----------------------------------
E-|------------------------------------


         Estoy buscando una palabra
E-|--------------------------------------------------------------
B-|----------3------------3--------------------------------------
G-|----0---0---0----0---0---0---------------0---2h0-0-----------
D-|------4------------4-------4----2h0-2h4---4-----4--2h0------
A-|-------------------------------------------------------2h0-------
E-|--3------------3----------------------------------------------

         En el umbral de tu misterio
E-|------------------------------------------------------------------
B-|----------3------------3----------------------------1h0----------
G-|----0---0---0----0---0---0---------------0---2h0-0-----2h0------
D-|------4------------4-------4----2h0-2h4---4-----4------------
A-|------------------------------------------------------------------
E-|--3------------3--------------------------------------------------

      Quien fuera Ali Baba      Quien fuera el mitico Simbad
E-|------------------------------------------------------------
B-|---------3----------3------------3-------------3------------
G-|-------0------0---0--------0---0----0----0---0----0---------
D-|-----4-----4----4------------4-------------4-----------------
A-|--3--------------------3-0-------------0---------------------
E-|-------------------------------------------------------------

                 Quien fuera un poderoso sortilegio  Quien fuera encantador
E-|-------------0-------------0-------------0------------------2------
B-|--------3-------------3-------------3------------------3-----------
G-|------0----0--------0----0--------0----0-------------2----2--------
D-|----4-------------4-------------4------------------0---------------
A-|--2-------------2-------------3------------------------------------
E-|-------------------------------------------------2-----------------

E-|------------------------------------------------------------------------
B-|---------3---------3----------------------------------------------------
G-|-------0---------0----0--------------0---2-0---0------------------------
D-|-----4---------4--------4-22-2-0-2-4---4-----4-----------------------
A-|------------------------------------------------------------------------
E-|--3---------3-----------------------------------------------------------

E-|------------------------------------------------------------------------
B-|----------3-------------3-----------------------------------------------
G-|----0---0----0----0---0----0--------------0---2-0---0-------------------
D-|------4-------------4--------4-22-2-0-2-4---4-----4------------------
A-|------------------------------------------------------------------------
E-|--3-------------3-------------------------------------------------------



IDEM LA SEGUNDA PARTE:
Estoy buscando una escafandra
al pie del mar de los delirios
quien fuera Jacques Cousteau
quien fuera Nemo el capitan
quien fuera el batiscafo de tu abismo
quien fuera explorador

E-|------------------------------------------------------------------
B-|----------3------------3----------------------------1h0----------
G-|-------0---0----0---0---0---------------0---2h0--0-----2h0------
D-|------4------------4-------4----2h0-2h4---4-----4------------
A-|------------------------------------------------------------------
E-|--3------------3--------------------------------------------------

CORO:  "CON DELAY"  (Rasqueo)
       Corazon,    Corazon oscuro
E-|----------------------------------------------------------------------
B-|---------3-------3----------------------------------------------------
G-|-------0---------4--------------------0----2h0---0-------------
D-|-----4-----------4-------4--2h0-2h4----4--------4----2h0--------
A-|-------------------------------------------------------2h0----
E-|--3--------------3----------------------------------------------------

       (delay)          (delay)
       Corazon,      Corazon con muros
E-|------------------------------------------------------------------------
B-|----------3------3-------------------------------------1h0----------
G-|--------0--------4---------------------0-----2h0----0------2h0----------
D-|------4----------4-------4---2h0--2h4---4---------4------------------
A-|------------------------------------------------------------------------
E-|--3--------------3-------------------------------------------------------

          (con delay siempre)           (delay)
      Corazon, que se esconde     Corazon, que esta donde
E-|------------------------------------------------------------------------
B-|----------3--------------------------3----------------------------------
G-|--------0--------------------------0------------------------------------
D-|------4--------------------------4--------------------------------------
A-|--3------------------------3-0------------------------------------------
E-|------------------------------------------------------------------------

     Corazon,  Corazon               en   fuga herido de dudas de amor
E-|----------------------0-----2------------2-0---3-2-020-------------------
B-|--------3-------3---3-----3---3--------3-----3---------3---0-------------
G-|------0---0---0---0-----0-------2----0-------------------2---0-----------
D-|----4-------4------------------------------------------------------------
A-|--2--------------------------------3-------------------------------------
E-|-------------------------------------------------------------------------


luego:
E-|--------------------------------------------------------------
B-|----------3------------3--------------------------------------
G-|----0---0---0----0---0---0---------------0---2h0-0-----------
D-|------4------------4-------4----2h0-2h4---4-----4--2h0------
A-|-------------------------------------------------------2h0-------
E-|--3------------3----------------------------------------------

E-|------------------------------------------------------------------
B-|----------3------------3----------------------------1h0----------
G-|----0---0---0----0---0---0---------------0---2h0-0-----2h0------
D-|------4------------4-------4----2h0-2h4---4-----4------------
A-|------------------------------------------------------------------
E-|--3------------3--------------------------------------------------

E-|---------------------------------------------------------0-----2------
B-|--------3-----3-------------3-----3--------3-------3---3-----3---3----
G-|------0-----0---------0---0-----0--------0---0---0---0-----0-------0--
D-|----4-----4-------------4-----4--------4-------4----------------------
A-|--3-----3---------3-0-------0--------2--------------------------------
E-|---------------------------------------------------------------------

E-|--------2-0---3-2-020---------------
B-|------3-----3---------3---0---------
G-|----0-------------------2---0-------
D-|--------------0---------------------
A-|-3----------------------------------
E-|------------------------------------


      Estoy    buscando   melodia
E-|-----------------------------------2-0--------2--------------------------
B-|---------3-------------3---------3--------3-------3----------------------
G-|---0---0----0----0---0----0----2--------2---2---2---2--------------------
D-|-----4-------------4-----------------------------------------------------
A-|-------------------------------------------------------------------------
E-|-3-------------3-------------2-------------------------------------------

      Para tener como llamarte
E-|------------------------------------------------------------------
B-|----------3------------3-----------------------------1h0----------
G-|----0---0---0----0---0---0---------------0---2h0--0-----2h0------
D-|------4------------4-------4----2h0-2h4---4-----4-------------
A-|------------------------------------------------------------------
E-|--3------------3--------------------------------------------------

      Quien fuera   ruise?or       Quien fuera   Lennon y Mcartney
E-|-----------------------------0---------------------------7--------7-------
B-|--------3--3------------3--3----------5----5--------7-----------8---8-----
G-|------0------0--------0-------------0----0--------5----5------9-------9---
D-|----4----------4----4-------------4-------------7-------------------------
A-|--3---------------4-------------5-------------6-------------7-------------
E-|--------------------------------------------------------------------------

  Sindo Garay, Violeta, Chico Buarque   Quien fuera tu trovador
E-|------7--------2-------------------------------------2--------------------
B-|--------8--------3--------1--------1--------1------3----3-----------------
G-|----9--------2----------0--------0--------2------2------------------------
D-|-----------0----------2--------0--------2---------------------------------
A-|--7-----------------3--------2--------0-----------------------------------
E-|-----------------------------------------------2-----------3---------------

Corazon, corazon oscuro
Corazon, corazon con muros
Corazon, que se esconde
Corazon, que esta donde
Corazon, corazon en fuga, herido de dudas de amor


luego sigue:
E-|--------------------------------------------------------------
B-|----------3------------3--------------------------------------
G-|----0---0---0----0---0---0---------------0---2h0-0-----------
D-|------4------------4-------4----2h0-2h4---4-----4--2h0------
A-|-------------------------------------------------------2h0-------
E-|--3------------3----------------------------------------------

E-|------------------------------------------------------------------
B-|----------3------------3----------------------------1h0----------
G-|----0---0---0----0---0---0---------------0---2h0-0-----2h0------
D-|------4------------4-------4----2h0-2h4---4-----4------------
A-|------------------------------------------------------------------
E-|--3------------3--------------------------------------------------

E-|---------------------------------------------------------0-----2------
B-|--------3-----3-------------3-----3--------3-------3---3-----3---3----
G-|------0-----0---------0---0-----0--------0---0---0---0-----0-------0--
D-|----4-----4-------------4-----4--------4-------4----------------------
A-|--3-----3---------3-0-------0--------2--------------------------------
E-|---------------------------------------------------------------------

E-|--------2-0---3-2-020---------------
B-|------3-----3---------3---0---------
G-|----0-------------------2---0-------
D-|--------------0---------------------
A-|-3----------------------------------
E-|------------------------------------

solo:

E-|--3-----------------------------------------------------------------------
B-|--01p0----3--1p0------------------------1p0-----------------1p0---0-3-1--
G-|--0------2--------2-0--------0---2p0---0-----2p0-------0---0-----2--------
D-|--0--------------------0h2-4---4-----4-----------2p0-----4----------------
A-|--2--------------------------------------------------3--------------------
E-|--3-----------------------------------------------------------------------

E-|--------------------------------------------------------------------------
B-|--1p0---------------------------1p0-----------------3---------------------
G-|------2p0-2---------0---2p0---0-----2p0-------0---0----0------------------
D-|------------4-0h2-4---4-----4-----------2p0-----4-------------------------
A-|--------------------------------------------3-----------------------------
E-|--------------------------------------------------------------------------

E-|----------------------------------------------------------
B-|----------3------------3-------------3--------------------
G-|----0---0--------0---0----0----0---0----0-----------------
D-|------4------------4-------------4------------------------
A-|--3----------3-0-------------0----------------------------
E-|----------------------------------------------------------

E-|----------------------0-----2------------2-0---3-2-020-------------------
B-|--------3-------3---3-----3---3--------3-----3---------3---0-------------
G-|------0---0---0---0-----0-------2----0-------------------2---0-----------
D-|----4-------4------------------------------------------------------------
A-|--2--------------------------------3-------------------------------------
E-|-------------------------------------------------------------------------

Final

Guitarra 1 :  punteo
Guitarra 2 :  razgueo
3 times
           G                                                        Em
E-|------------------------------------------------------------------------
B-|---------3---------3----------------------------------------------------
G-|-------0---------0----0-------------0---2h0---0------------------------
D-|-----4---------4--------4--2h0-2h4----4-----4---2h0--------------------
A-|----------------------------------------------------2h0--------------------
E-|--3---------3-----------------------------------------------------------

     G                            Em
E-|------------------------------------------------------------------------
B-|----------3-------------3----------------------------1h0-------------------
G-|----0---0----0----0---0----0-------------0---2h0---0-----2h0---------------
D-|------4-------------4--------4--2h0-2h4---4------4-------------------
A-|------------------------------------------------------------------------
E-|--3-------------3-------------------------------------------------------

     C                          Am
E-|------------------------------------------------------------------------
B-|----------3-------------3------------3-------------3--------------------
G-|----0---0---------0---0--------0---0----0----0---0----0-----------------
D-|------4-------------4------------4-------------4------------------------
A-|--3-------------3----------3-0-------------0----------------------------
E-|------------------------------------------------------------------------

     Em9                              C           Dsus4 D         G
E-|----------------------0-----2------------2-0---3-2-020-------------------
B-|--------3-------3---3-----3---3--------3-----3---------3---0-------------
G-|------0---0---0---0-----0-------2----0-------------------2---0-----------
D-|----4-------4------------------------------------------------------------
A-|--2--------------------------------3-------------------------------------
E-|-------------------------------------------------------------------------

luego:

E-|--------------------------------------------------------------------------
B-|--------3p1---0-3-----3------------------------------1p0------------------
G-|------0-----2-------0---0----------------0---2h0---0-----2p0--------------
D-|----4-------------4--------4-2-22h0-2-4---4-----4-----------2p0----------
A-|--------------------------------------------------------------------------
E-|--3-----------------------------------------------------------------------

E-|--------------------------------------------------------------------------
B-|--------3p1---0-3-----3------------------------------1p0----------------3-
G-|------0-----2-------0---0----------------0---2h0---0-----2p0----------0---
D-|----4-------------4--------4-2-22h0-2-4---4-----4-----------2p0----4-----
A-|--------------------------------------------------------------------------
E-|--3--------------------------------------------------------------3--------





[ Tab from: http://www.guitaretab.com/r/rodriguez-silvio/24291.html ]
Related for Quien Fuera tab