Song name
# A B C D E F G H I J K L M N O P Q R S T U V W X Y Z

Roe Tommy - Sheila tab

-------------------------------------------------------------------------------
			SHEILA - Shooting Blanks
-------------------------------------------------------------------------------

Album: Wasted Time
Tabbed by: Matt Hoffman
Email: Hoffman@shootingblanks.net

Tuning: Standard - E A D G B E


INTRO/VERSE:
 B               E        F#


RIFF OVER VERSES:
   B               E       F#
e|-----------------0-0-4-5-5-5-4-0--|
B|-0-0-4-5-5-5-4-0------------------|
G|----------------------------------|
D|----------------------------------|
A|----------------------------------|
E|----------------------------------|


CHORUS:
   E               F#               B               G#
e|------------------------------------------------------|
B|------------------------------------------------------|
G|-9--------------------------------4-------------------|
D|-9---------------4----------------4---------------6---|
A|-7---------------4----------------2---------------6---|
E|-----------------2--------------------------------4---|

   E               F#               B               G#
e|------------------------------------------------------|
B|------------------------------------------------------|
G|-9--------------------------------4-------------------|
D|-9---------------4----------------4---------------6---|
A|-7---------------4----------------2---------------6---|
E|-----------------2--------------------------------4---|

   E               F#               B
e|-------------------------------------|
B|-------------------------------------|
G|-9--------------------------------4--|
D|-9---------------4----------------4--|
A|-7---------------4----------------2--|
E|-----------------2-------------------|


BREAK:
   B               D#               E               F#
e|-----------------------------------------------------------------|
B|-----------------------------------------------------------------|
G|-----------------8----------------9---------------11-------------|  x 2
D|-9---------------8----------------9---------------11-------------|
A|-9---------------6----------------7---------------9--------------|
E|-7---------------------------------------------------------------|


OUTRO:
   B               E       F#        B               E       F#
e|--------------------------------------------------------------------|
B|--------------------------------------------------------------------|
G|-11--------------13------15--------16--------------13------15-------|
D|--------------------------------------------------------------------|
A|-9---------------11------13--------14--------------11------13-------|
E|--------------------------------------------------------------------|

| /  slide up
| \  slide down
| h  hammer-on
| p  pull-off
| ~  vibrato
| +  harmonic
| x  Mute note
===============================================================================
Tap to rate this tab
 
# A B C D E F G H I J K L M N O P Q R S T U V W X Y Z