Song name
# A B C D E F G H I J K L M N O P Q R S T U V W X Y Z

Roger Clyne - Interlude Home On The Range tab

Interlude (Home On The Range)
Peacemakers
from David Cushman, http://gladstone.uoregon.edu/~dcushman/guitar.html
tab by David Armstrong armstrda@engr.orst.edu


Capo 2

       G              C             G           D
e:-------------------------------------------------|
B:-------------------------------------------------|
G:-------0-2-4----------5-5-5---4-5-7--------------|
D:-0-0-0----------5-4-2---------------5-5-5-4-5-7--|
A:-------------------------------------------------|
E:-------------------------------------------------|

       G              C             G     D   A G
e:-------------------------------------------------|
B:-------------------------------------------------|
G:-------0--2-4---------5-5-5---5-5-4-2-0-----2-0--|
D:-0-0-0----------5-4-2-------------------4-5------|
A:-------------------------------------------------|
E:-------------------------------------------------|

         D           G    G            D
e:-3-5-7-10---8-7--5-7--3-3--3-3-3-2-3-5--|
B:----------------------------------------|
G:----------------------------------------|
D:----------------------------------------|
A:----------------------------------------|
E:----------------------------------------|

       G             C             G     D   C G       C     D           G
e:-------3-5-7---5-3-2-3-5-8---8-8-7-5-3-2-3-5-3---5-7-8--7--5-----3--2--3-----|
B:-3-3-3-----------------------------------------------------------------------|
G:-----------------------------------------------------------------------------|
D:-----------------------------------------------------------------------------|
A:-----------------------------------------------------------------------------|
E:-----------------------------------------------------------------------------|


Chords:
   G          C          D          A (just a bass note in progression)
e:---------------------------------------
B:--0-0--0-0---1-1--1-1---3-3--3-3-------
G:--0-0--0-0---0-0--0-0---2-2--2-2-------
D:-----------------------0----0----------
A:------------3----3----------------0----
E:-3----3--------------------------------
Tap to rate this tab
# A B C D E F G H I J K L M N O P Q R S T U V W X Y Z