Roger Daltrey - Without Your Love tab

All the credit for this goes to the guys at Whotabs.

Without Your Love | guitar tab
By Roger Daltrey
>From the soundtrack to "McVicar" (1980)
Written by Billy Nicholls

#----------------------------------PLEASE NOTE---------------------------------#
#This file is the author's own work and represents their interpretation of the #
#song. You may only use this file for private study, scholarship, or research. #
#------------------------------------------------------------------------------#

Transcribed by TC (tc65220@yahoo.com)

2001-12-28                   Whotabs                    www.thewho.net/whotabs/

The intro isn't supposed to be perfectly accurate, just
an approximation I came up with.

(intro)
  F                                 C
|-----------1-----|---------------|-------------0---|
|-1-----1-----1---|-0-1---3---1-0-|-1-----1---3-----|
|-----2---------2-|---------2-----|-----0---------0-|
|---3-----3-------|-----3---------|---2-----2-------|
|-----------------|---------------|-3---------------|
|-1---------------|-1-------------|-----------------|

  1   2   3   4     1   2   3   4   1   2   3   4


  C                 F     C     F     C
|-----------------|-----------------|-----------------|
|-1-----1-----1---|-1-----1-----1---|-1-----1-----1---|
|-----0-----0---0-|-----2-----0-----|-----0-----0---0-|
|---2-----2-------|---3-----2-----3-|---2-----2-------|
|-3---------------|-------3---------|-3---------------|
|-----------------|-1-----------1---|-----------------|
  1   2   3   4     1   2   3   4     1   2   3   4

A.

C            G             Gm         F
You can show me the way -- give me a sunny day
                  G                 C
but what does it mean without your love?
    C            G        Gm           F
And if I could travel far, if I could touch the stars
              G                C
where would I be without your love?



B1.

Bb         F               G        C
Whenever I get to feel    down and out
Bb             F                      G        C
I think about what you said and then   I give out
C           G        E             F
If I could fly away -- if I could sail today
              G                C
where would I go without your love?


(play intro, then repeat A.)


B2.

Bb       F               G       C
And if I ever wandered away too far
Bb               F                   G       C
Mmm, you comin' looking for me with    open arms
C                  G     E           F
I could forget my home, feel like a rolling stone
                G                C
but who would I be without your love?


F                 G                 C
And what does it mean without your love?
F             G 
Where would I be...?


(Repeat intro and end)

#----------------------------------PLEASE NOTE---------------------------------#
#This file is the author's own work and represents their interpretation of the #
#song. You may only use this file for private study, scholarship, or research. #
#------------------------------------------------------------------------------#
Tap to rate this tab
 
# A B C D E F G H I J K L M N O P Q R S T U V W X Y Z