Guitaretab - guitar tabs
Song name
# A B C D E F G H I J K L M N O P Q R S T U V W X Y Z

Roger Hodgson - Dont You Want To Get High tab

          Donít You Want To Get High Ė Roger Hodgson

Intro

Em  G  Em  G

Em
--0-----0-----0---0---0---0-----0-----0-----0--|
--------------2---2---2---2-----2--------------|
--------------2---2---2---2-----2--------------|
--------------0---0---0---0-----0--------------|
--------------0---0---0---0-----0--------------|
--------------0---2---3---2-----0--------------|

G
--3-----3-----3-----3-----3-----3-----3-----3--|
--------------2-----2-----------------2-----2--|
--------------0-----0-----------------0-----0--|
--------------0-----0-----------------0-----0--|
--------------0-----0-----------------0-----0--|
--------------3-----3-----------------3-----3--|

[ Tab from: http://www.guitaretab.com/r/roger-hodgson/84208.html ]
Em                            G
When will you walk through my door?
When will the clouds disappear?
When will the story unfold?
When will there be no more tears?


            Hm Em  Hm  Em
'Cause it's okay,  you say
Am                     G                     F
Don't you want to get, don't you want to get high?

     Hm   Em     Hm  Em
Sing Lord knows, let go
Am                     G                     F
Don't you want to get, don't you want to get high?

Smile though the world feels so cold,
Sing though there's no oneto hear
Dream so the story unfolds,
Laugh so there'll be no more fear


'Cause it's okay, you say
Don't you want to get, don't you wantto get high?
Sing Lord knows, let go
Don't you want to get, don't you wantto get high?


Lord there's a way, you know we'll say today
Don't you want toget, don't you want to get high"
Sing Lord there's a way, your love will save the day
Don't you want to get, don't you want to get high


http://www.rogerhodgson.com/
Related for Dont You Want To Get High tab