Song name
# A B C D E F G H I J K L M N O P Q R S T U V W X Y Z

Roger Mcguinn - Fireworks tab

Fireworks' Solo by The Whitest Boy Alive

Tabbed by: Frank Truei
Email: Brokensword421@hotmail.com


TUNING: Standard

e|------------------------------|
B|------------------------------|
G|-----13---------12------------|
D|11------11-10------10-8---8/10|
A|------------------------------|
E|------------------------------|

e|------------------------------|
B|------------------------------|
G|-----13-----------------------|
D|11------11-10--11-13-15---15--|
A|------------------------------|
E|------------------------------|

e|------------------------------|
B|------------------------------|
G|--------17-------15-----------|
D|-15---15--15-13----13-------11|
A|---------------------13---13--|
E|------------------------------|

e|------------------------------|
B|--------------------18--------|
G|---------17-------15----------|
D|--15---15--15-13--------------|
A|------------------------------|
E|------------------------------|


Tap to rate this tab
# A B C D E F G H I J K L M N O P Q R S T U V W X Y Z