Song name
# A B C D E F G H I J K L M N O P Q R S T U V W X Y Z

Roger Mcguinn - Together tab

tabbed by: Kevin Christian Malinao
description:
      medyo may konting mali poe dyan. . kaxee yung sounds nian kinuha ko lang sa piano 
ko lang poe . .kung may comments. . .email nio na lang poe sa akin. .

ashungakerz@yahoo.com

dedicated nga poe pala to sa bhaybhie kouh. . hehe. . .

e|-----------------7----12----10---9---7-----------------------|
B|--10-------10-----------------------------10---9-------------|
G|-------9-----------------------------------------------------|
D|-------------------------------------------------------------|
A|-------------------------------------------------------------|
E|-------------------------------------------------------------|

then..

e|------------7---10---10---9----7---9----------------------|
B|-------10------------------------------10-----------------|
G|---9------------------------------------------------------|
D|----------------------------------------------------------|
A|----------------------------------------------------------|
E|----------------------------------------------------------|

next..

e|-----------------7----12----10---9---7--------7--------------|
B|-----------10----------------------------10------------------|
G|-------9-----------------------------------------------------|
D|-------------------------------------------------------------|
A|-------------------------------------------------------------|
E|-------------------------------------------------------------|

last part..

e|--------------------------------------------------------------|
B|---10-10-----9--10---12--10---9--12---10----------------------|
G|----------9---------------------------------------------------|
D|--------------------------------------------------------------|
A|--------------------------------------------------------------|
E|--------------------------------------------------------------|
Tap to rate this tab
# A B C D E F G H I J K L M N O P Q R S T U V W X Y Z