Song name
# A B C D E F G H I J K L M N O P Q R S T U V W X Y Z

Roger Miller - Waitin For The Light To Shine tab

E|--------------------------------------------9B/10--9---7-------------------|
B|---------------------------------------------------------------------------| 
G|---------------------------------------------------------------------------|
D|---------------------------------------------------------------------------|
A|---------------------------------------------------------------------------|
E|---------------------------------------------------------------------------|
               . . . Waitin for the light to shine

E|------------------------------b14\16\14-12-12----------------12-12---------|
B|------------------------------------------------12-12-12h14----------------| 
G|---------------------------------------------------------------------------|
D|---------------------------------------------------------------------------|
A|---------------------------------------------------------------------------|
E|---------------------------------------------------------------------------| 
         Öare the things Iíve doneÖ..

E|--------------------------------------------9b/10--9---7-------------------|
B|---------------------------------------------------------------------------| 
G|---------------------------------------------------------------------------|
D|---------------------------------------------------------------------------|
A|---------------------------------------------------------------------------|
E|---------------------------------------------------------------------------| 
       Are the way that was taught to run
                
E|---------------------------------------9b/10--9--7-------------------------|
B|---------------------------------------------------------------------------| 
G|---------------------------------------------------------------------------|
D|---------------------------------------------------------------------------|
A|---------------------------------------------------------------------------|
E|---------------------------------------------------------------------------|
        Iím waiting for the light to shine 
              
Tap to rate this tab
# A B C D E F G H I J K L M N O P Q R S T U V W X Y Z