Song name
# A B C D E F G H I J K L M N O P Q R S T U V W X Y Z

Roger Miller - Oo De Lally tab

CAPO FIRST FRET TO PLAY ALONG WITH RECORDING

Basically it's A chord playing the open a then the fretted E on the D String.
Then For 'Never ever thinking there was danger in the water' bit it's A (briefly) Then 
to D5  B7 and ends on E (These chords are what would be if the capo wasn't there)

This is my first ever tab so be kind.. Listen to the song and play along - easier..

Capo 1st Fret and finger picked..


Chords Used

A   002220
D5  000230
B7  021200
E   022100

e|-------------------------------------------------------------|
B|---------2-------------2------------ 2----------3------2-----|
G|------------2-------------2-------------2----------2------2--|
D|----------2-------------2-------------2--------------------  |
A|---0-----------0-------------------0------------0----- 0-----|
E|-------------------------------------------------------------|
                                                 ^^^^This bit comes in for the words 
"walking through the forest and 'having such a good time'

e|-------------------------------------------------------------------|
B|----------------2----------------------3----------3---------3------|
G|--------------------2------------------2----------2---------2------|
D|-----2-----------2---------------0------------0---------0----------|
A|------------0------------------------------------------------------|
E|--0----------------------------------------------------------------|
                                ^^^ D5 Chord when words 'drinking they just guzzled it down

e|----------------------------------------------------------|
B|----------------------------------------------------------|
G|-------2--------2------2--------2-----------1-------------|
D|-------1--------1------1--------1-----------2---x6--------|
A|----2-------2--------2-------2--------------2-------------|
E|-----------------------------------------0----------------|
^^^Never ever dreaming that a sheriff and his…


Any comments please email lovecatluke@hotmail.com
Tap to rate this tab
 
# A B C D E F G H I J K L M N O P Q R S T U V W X Y Z