Song name
# A B C D E F G H I J K L M N O P Q R S T U V W X Y Z

Roger Miller - Waitin For The Light To Shine From Big River tab

-------------------------------------------------------------------------------
    Waitin For The Light To Shine - Roger Miller (from the musical Big River)
-------------------------------------------------------------------------------
Tabbed by: Doron Kipper
Email: magicdgk@gmail.com

This is the slow version, not the reprise.  I did this by ear, and it sounds pretty
to me...but please email me if you have any comments, suggestions, or corrections.  
I
like to note that in the soundtrack...I think there are two guitars playing...but I have 
this for solo play.  If you found this tab useful...please drop me a note to
me know that my efforts weren't wasted.

I do not recommend trying this with a pick...it's a fingerpicking song.  Also, I have
written a tab before so my sense of timing through the lines is horrible...if you are
as to how fast the song should be, listen to the soundtrack or email me and I can send 
audio of me playing the song exactly as written here.  Enjoy.

Intro:

e|--7---0-5-4-2-----0------0------0------0--0-0-0-0------0-------------------|
B|----9-------------------------------------2-----0-------------2------------|
G|------------------4------2------3------4----4-2--------4------2------------|
D|---------------------------------------------------------------------------|
A|------------------------------------------0-----2---------2-2--------------|
E|--------------0-4----2-2----3-3----4-4------4-2----0-4---------------------|


e|------0----------0-----------------0-----------0---0------0-------0-----0--|
B|----------------------------------------------------------2-------------0--|
G|------4----------2-----------------4-----------5---4--------------2--------|
D|---------------------------------------------------------------------------|
A|----------------------------------------------------------4-------------2--|
E|--0-4--------2-2----------4-4-------------5-5------4--------------2--------|

        I have lived in the darkness for so long I'm waitin for the light to

e|-0--0-0---------------0--------0------0-2----3-------4--------5------7------|
B|-3--2-0---------------------------------------------------------------------|
G|----------------------4--------2------4-2----3-------4--------6------7------|
D|----------------2-----------------------------------------------------------|
A|-2--2-2------2h4------------------------------------------------------------|
E|------------------0-4-----2-2---------4-2----3-------4--------5------7------|

   shine.           Far beyond horizons I have seen, beyond the things I've

e|-5----------------0-----------0---------------------------0--------0-------|
B|-------------------------0-------------------------------------------------|
G|-6----------------4------2----4--------4\\\2--------------4--------2-------|
D|---------------------------------------------------------------------------|
A|---------------------------------------------------------------------------|
E|-5----------------4------2----4----------------0------4--------2-2---------|

   been, beyond the dreams I've dreamed, are the things I've done,   in fact

e|----------0----------0-------0--------0-----0------0--0--0-0---------------|
B|--------------------------------------2------------0--3--2-0---------------|
G|----------4----------5-------4--------------2------------------------------|
D|---------------------------------------------------------------------------|
A|--------------------------------------4------------2--2--2-2---------------|
E|-4----4---------5-5----------4--------------2------------------------------|

   each and every one, are the way that I was taught to run

e|-------0---------0----------------0--------0--0------0-------0-----0-------|
B|--------0-------------------------------------2--------------------0-------|
G|---------------------2---------3---------4-----------4-------2-------------|
D|---------------------------------------------------------------------------|
A|-2h4------------------------------------------0--------------------2-------|
E|----0-0---2--2-----------3-3--------4-4--------------4-------2-------------|

      I  am waitin for the light to shine, I am waitin for the light to shine

e|------0---------2-|
B|--------0-----2---|
G|------------------|
D|------------------|
A|------------------|
E|-0-0------2-2-----|


e|------0----------0-----------------0-----------0---0------0-------0-----0--|
B|----------------------------------------------------------2-------------0--|
G|------4----------2-----------------4-----------5---4--------------2--------|
D|---------------------------------------------------------------------------|
A|----------------------------------------------------------4-------------2--|
E|--0-4--------2-2----------4-4-------------5-5------4--------------2--------|

        I have lived in the darkness for so long I'm waitin for the light to

                                E
e|-0--0-0---------7---0-5-4--2--0---------------------------------------------|
B|-3--2-0-----------9-----------0---------------------------------------------|
G|------------------------------1---------------------------------------------|
D|------------------------------2---------------------------------------------|
A|-2--2-2-----------------------2---------------------------------------------|
E|------------------------------0---------------------------------------------|

   shine.                       (Strum E Chord once with finger lightly)

| \  slide down
| h  hammer-on
| p  pull-off
Tap to rate this tab
# A B C D E F G H I J K L M N O P Q R S T U V W X Y Z