Song name
# A B C D E F G H I J K L M N O P Q R S T U V W X Y Z

Roger Waters - Each Small Candle tab

Tablature : Ali Lotfi
Snowy White's part

This is my first experience,so please rate it and mention my mistakes.
E-mail: Lawless_storm@yahoo.com

As you know:

H = Hammer on
P = Pull off
B = Bend
~~ = Vibration

E---------------------x8-10-11-8-----10----8-----10B1/2------------------|
B--------------------x-----------8------11-------------------------------|
G-------------------x----------------------------------------------------|
D------------------x-----------------------------------------------------|
A------------------------------------------------------------------------|
E------------------------------------------------------------------------|


E----------------8---8--11B3/4----11--8H11P8----------8-------8----------|
B------------------8-------------------------11-8--11---11------11-8-----|
G------------------------------------------------------------------------|
D------------------------------------------------------------------------|
A------------------------------------------------------------------------|
E------------------------------------------------------------------------|


                                      ~~
E----------------8-10-11--10H11P10P8--10--8--10--------------------------|
B-----------------------------------------------11--8--------------------|
G------------------------------------------------------------------------|
D------------------------------------------------------------------------|
A------------------------------------------------------------------------|
E------------------------------------------------------------------------|



                                     ~~
E-------------------11--8H11P8-----------6--8--10B1/2--10----------------|
B-----------------8------------11--8--9----------------------------------|
G------------------------------------------------------------------------|
D------------------------------------------------------------------------|
A------------------------------------------------------------------------|
E------------------------------------------------------------------------|
Tap to rate this tab
 
# A B C D E F G H I J K L M N O P Q R S T U V W X Y Z