Guitaretab - guitar tabs
Song name
# A B C D E F G H I J K L M N O P Q R S T U V W X Y Z

Roger Waters - What God Wants Part Three tab

Roger Waters - WHAT GOD WANTS (Part Three)
Added to UG By Mikhailo (mikhailo_@mail.ru)


    Em                               Csus4      C        Em
e-|-0--------------------------------0----------0--------0-----------|
B-|-0--------------------------------1----------1--------0-----------|
G-|-0--------------------------------0----------0--------0-----------|
D-|-2--------------------------------3----------2--------2-----------|
A-|-2--------------------------------3----------3--------2-----------|
E-|-0--------------------------------0----------0--------0-----------|
        Don't be afraid, it's only business                  the alien 

             Csus4      C              F                F/E
e-|----------0----------0--------------------------------------------|
B-|----------1----------1---------------------1-----------------1----|
G-|----------0----------0------------------2----------------2--------|
D-|----------3----------2--------------3----------3-----2----------2-|
A-|----------3----------3--------------------------------------------|
E-|----------0----------0--------------------------------------------|
   prophet sighed.                The vulture   and the magpie    took

        F/Eb                                      Dsus4
e-|------------------------------------------------------------------|
B-|----------------------1--------------------------------------3----|
G-|-------------2--------------2--3----------------------2-----------|
D-|-----1-----------------------------------------0------------------|
A-|------------------------------------------------------------------|
E-|------------------------------------------------------------------| 
    the cashbox from its hook,                the monkey in the corner

                                D
e-|------3------------3---------2------------------------------------|
B-|----------3------------------3------------------------------------|
G-|-2------------2--------------2------------------------------------|
D-|-----------------------------0------------------------------------|
A-|-----------------------------0------------------------------------|
E-|------------------------------------------------------------------|
                      wrote the figures in his book.

    Em                          Em/D                               F
e-|-0--------------------------------------------------------------1-|
B-|-0--------------------------------------------------------------1-|
G-|-0----------------------------------0-----2----4------2---0-----2-|
D-|-2--------------------------------------------------------------3-|
A-|-2--------------------------------------------------------------3-|
E-|-0----------------------------------------------------------------|
   Crazed, the checkout's lady fingers flash across the till,

                              C                              Em
e-|---------------------------0--------------------------------------|
B-|---------------------------1--------------------------------------|
G-|---------------------------0------------------------------0-------|
D-|---------------------------2----------------0--2--0-------2-------|
A-|---------------------------3-------------------------3----2-------|
E-|---------------------------0------------------------------0-------| 
   and the captain posts the menu of the day       and in banks across 
[ Tab from: http://www.guitaretab.com/r/roger-waters/32590.html ]
                                                               Dm6 
e-|--------------------------------------0---------------------------|
B-|--------------------------------------0---------------------------|
G-|--------------------------------------0---------------------------|
D-|--------------------------------------2---------------------0-----|
A-|--------------------------------------2------------------------2--|
E-|------------------------------------------------------------------|
   the world, Christian, Moslem, Hindu, Jew and every other race, 

              F/C                                       C 
e-|------------------------------------------------------------------|
B-|------------------------------------------------------------------|
G-|------------------------------------------------0----2------------|
D-|---0------------------------------------------------------------2-|
A-|------2----3------------------------------------------------------|
E-|------------------------------------------------------------------|
   creed,   color,   tint or hue get down on their knees and pray.

                   F                   F/E 
e-|------------------------------------------------------------------|
B-|------------------------1---------------------------1-------------|
G-|--------------------2------------------------2--------------------|
D-|--2--0----------3----------3--------2--------------------2-----1--|
A-|-------3----------------------------------------------------------|
E-|------------------------------------------------------------------|
               The racoon     and the groundhog neatly           

    F/Eb                                         Dsus4 
e-|------------------------------------------------------------------|
B-|------------1-----------------------------------------------------|
G-|-----2------------2-----0-----------------------------------------|
D-|----------------------------3-------------------------------------|
A-|------------------------------------------------------------------|
E-|------------------------------------------------------------------|
   make up bags of change                but the monkey in the corner, 
 
                                    D
e-|-------3-----------------3-------2--------------------------------|
B-|-3--------3----------------------3-----------------------------15-|
G-|----2--------2-------------------2--------------------------10----|
D-|---------------------------------0--------------------------------|
A-|---------------------------------0--------------------------------|
E-|------------------------------------------------------------------|
                 well, he's slowly drifting out of range


'solo forthcoming'

             C#                                C#/D#
'Christ, it's freezing inside,' the veteran cries
       D/A                   A
The hyenas break cover and stream through the meadow
         C#                                  C#/D#
And the fog rolls in through his bottle of gin
      D/A                                A
So he picks up a stone that looks like a bone
        D
And the bullets fly and the rivers run dry
        D/C#                                  D/C            C
And the fat girls sigh and the network anchor persons lie
        Bsus4  
And the soldier's alone in the video zone
        B
But the monkey's not watching

He's slipped out to the kitchen to pile the dishes
                    Em
And answer the phone
Related for What God Wants Part Three tab
Advertisement will be closed in 10 seconds