Guitaretab - guitar tabs
Song name
# A B C D E F G H I J K L M N O P Q R S T U V W X Y Z

Roger Waters - Dark Places tab

   e----------------------------------------------------------------------|
   B----------------------------------------------------------------------|
   G-14--12------12-12----------12/14----12-12-12-------------12-12---12--|
   D---------14--14-14---12h14-----------12-12-12--12h13h14---14-14-------|
   A----------------------------------------------------------------------|
   E----------------------------------------------------------------------|
[ Tab from: http://www.guitaretab.com/r/roger-waters/50797.html ]
   e-----------------------------------------------------------------------|
   B-----------------------------------------------------------------------|
   G----------------------------------12/14-~~~~~~---14[16]--14[16]-12~~~~-|
   D--14-12-------12-12--------12h14---------------------------------------|
   A---------14---14-14--12h14---------------------------------------------|
   E-----------------------------------------------------------------------|

   e----------------------------------------------------------------------|
   B----------------------------------------------------------------------|
   G---12-12---~~~~~~~~---------------------------------------------------|
   D---12-12---~~~~~~~~---------------------------------------------------|
   A----------------------------------------------------------------------|
   E----------------------------------------------------------------------|
Related for Dark Places tab
Advertisement will be closed in 10 seconds