Song name
# A B C D E F G H I J K L M N O P Q R S T U V W X Y Z

Rogerthat - Chasing The Sun tab

e---------------------------------------------------------------------------|
B---------------------------------------------------------------------------|
G---11--11--11--11--9--9--9-----7--7--7--7--6--6--6-------------------------|
D---9---9---9---9---7--7--7-----5--5--5--5--4--4--4-------------------------|
A---------------------------------------------------------------------------|
E---------------------------------------------------------------------------|

e----------------------------------------------------------------------------|
B----------------------------------------------------------------------------|
G---11--11--11--11--9--9--9--9-----7--7--7--7----6b--------------------------|
D---9---9---9---9---7--7--7--7-----5--5--5--5--------------------------------|
A----------------------------------------------------------------------------|
E----------------------------------------------------------------------------|


on the bend, only bend it halfway then release the bend. do that twice.
Tap to rate this tab
# A B C D E F G H I J K L M N O P Q R S T U V W X Y Z