Guitaretab - guitar tabs
Song name
# A B C D E F G H I J K L M N O P Q R S T U V W X Y Z

Rogue Traders - Were Coming Home tab

This Song Is really easy.
Listen to the song to get the timing right.

E -----------------------------|
B ------------------------------|
G -------------------------- ---|
D 4  4- 4  4 4  4 4 -- ----|  x 15
A 2  2- 2  2 2  2 2 -- ----|
E -------------------------- ---|

[ Tab from: http://www.guitaretab.com/r/rogue-traders/84903.html ]
E -------------------------- -------------------|
B --------------------------- -------------------|
G --------------------------  -------------------|
D 4  4- 4  4 4  4 4 ------------------------|
A 2  2- 2  2 2  2 2 -- 5-5-5-5-5-5-5--------|
E -------------------------- 3-3-3-3-3-3-3-------|

E -----------------------|
B------------------------|
G------------------------|
D------------------------|      x2
A 7-7-7-7-7-7-7----------|
E  5-5-5-5-5-5-5---------|

Chorus   same chords as second bit of verse


Inter ludey thing


E--------------------------------|
B--------------------------------|
G--------------------------------|
C  9-9-9-9  7-7-7-7 -------------|
A  7-7-7-7 5-5-5-5   7-7-7-7-----|
E--------------------   5-5-5-5--|

I f u listen to the song yo'll figure out when to repat and stuff
Related for Were Coming Home tab