Song name
# A B C D E F G H I J K L M N O P Q R S T U V W X Y Z

Rogue Wave - Lake Michigan Acoustic tab

By: Ali
Standard Tuning
Capo 3

INTRO/Verse:
e|------------------------------------|
B|--------3-3-3-----------------------|
G|--------0-0-0--0-----0---0----------|
D|--------0-0-0--4----4---4-----------|
A|---------------3--------------------|
E|---3--3-----------------------------|

heaven is a switchboard that you want to fight
she would even miss you if you taught her sight
power politician leaning to the right
baby's got a trust fund

Prechorus:
e|---3--3--3--3--|
B|---3--2--1--0--|
G|---0--2--0--0--|  X2
D|---2--2--2--0--|
A|---2--0--3--2--|
E|---0--x--x--3--|

that she'll want to go off like that
get off of my stack
leave a little window
get off of my stack

Verse 2:
e|------------------------------------|
B|--------3-3-3-----------------------|
G|--------0-0-0--0-----0---0----------|
D|--------0-0-0--4----4---4-----------|
A|---------------3--------------------|
E|---3--3-----------------------------|


now we wear same colored yellow uniforms
sky is burning
but at least we're warm
go and run yourself a million miles
hoping that the colors run out

Prechorus 2:
e|---3--3--3--3--|
B|---3--2--1--0--|
G|---0--2--0--0--|  X2
D|---2--2--2--0--|
A|---2--0--3--2--|
E|---0--x--x--3--|

and you go off like that
get off of my stack
leave a little window
get off of my stack

Chorus:
e|---3--3--3--3--|
B|---3--3--3--3--|
G|---0--0--0--0--|
D|---0--2--0--2--|
A|---2--3--2--3--|
E|---3--x--3--x--|

you can never see yourself
ringing all around it

Bridge is just the A chord from the prechorus over and over again, with some slide 
which you can improvise.

e|-----3---|
B|-----2---|
G|-----2---|
D|-----2---|
A|-----0---|
E|-----x---|

Prechorus one more time...

e|---3--3--3--3--|
B|---3--2--1--0--|
G|---0--2--0--0--|  X2
D|---2--2--2--0--|
A|---2--0--3--2--|
E|---0--x--x--3--|

not another payoff
get off of my stack
leave a little window

get off of my stack
you know it won't do
get off of my stack

Outro:

e|---3--3--3--3--|
B|---3--3--3--3--|
G|---0--0--0--0--|
D|---0--2--0--2--|
A|---2--3--2--3--|
E|---3--x--3--x--|

bum ba ba
bum ba ba
bum ba ba
bum ba ba

you can never see yourself
ringing all around it
Tap to rate this tab
# A B C D E F G H I J K L M N O P Q R S T U V W X Y Z