Song name
# A B C D E F G H I J K L M N O P Q R S T U V W X Y Z

Rogue Wave - Seasick On Land tab

Seasick on Land
Rogue Wave
Tabbed by Aaron

This song kind of has a swing feel to it. Listen to the original for the rhythm.

Intro/Verse
Just alternate between these two chords:

    E     Aadd#4 or Emaj7sus4/A or something

e|--0-----0----------|
B|--0-----4----------|
G|--1-----2----------|
D|--2-----2----------|
A|--2-----0----------|
E|--0-----x----------|

After a few repetitions, this riff comes in:

e|------------------------|
B|--0--0--4b5--4b5--------|
G|------------------------|
D|------------------------|
A|------------------------|
E|------------------------|


And there might be this in the background (or you can use this instead)

e|---------------0----0---|
B|------------4----4------|
G|--4--4-4--4-------------|
D|------------------------|
A|------------------------|
E|------------------------|


Chorus
Play these chords without the lead riff

     D7   E
e|---2----0---------------|
B|---1----0---------------|
G|---2----1---------------|
D|---0----2---------------|
A|---x----2---------------|
E|---x----0---------------|


Outro
(no swing feel here)

e|--------------------------------|
B|--------------------------------|
G|-----9--7--6--6/7--6--4p0-4/6---|
D|--------------------------------|  X3
A|--7-----------------------------|
E|--------------------------------|


and have the fourth time be this:

e|--------------------------------|
B|--------------------------7-5---|
G|-----9--7--6--6/7--6--4-6-------|
D|--------------------------------|
A|--7-----------------------------|
E|--------------------------------|

Over that part, the electric guitar is playing this:

e|--------------------------------|
B|------9--7--5--5/7--5--3p0-3/5--|
G|--------------------------------|  X3
D|--------------------------------|
A|--------------------------------|
E|--------------------------------|

End on:

e|---------------------------4----|
B|------9--7--5--5/7--5--3-5---5--|
G|--------------------------------|
D|--------------------------------|
A|--------------------------------|
E|--------------------------------|

Those last two guitar parts can be combined into one fairly easily, as well.
That's it! Hope this works for you. Any comments or questions can be emailed to
truegoogle@yahoo.com
Tap to rate this tab
# A B C D E F G H I J K L M N O P Q R S T U V W X Y Z