Song name
# A B C D E F G H I J K L M N O P Q R S T U V W X Y Z

Rogue Wave - Bird On A Wire tab

Standard tuning
Capo 3rd fret


Verse:
e---2----2----2----2--------2---2---2----2---2---2----|
B---3----2----3----2--------0---0---0----0---0---0----|
G---2----2----2----2------4---4---4----3---3---3------|
D---0----2----0----2----------------------------------|
A-----------------------------------------------------|
E-----------------------------------------------------|


----2-------------------3-----3-----------------2---------------|
----4-------------------5-----3-----------------3---------------|
----4-------------------5-----0-----------------2---------------|
----4-------------------5-----0-----------------0---------------|
----2-------------------3-----2-----------------0---------------|
------------------------------3----------------(2)--------------|
      Youre a bird on a wire         and youre wrestling...


----2----------------3-----------|
----4----------------5-----------|
----4----------------5-----------|
----4----------------5-----------|
----2----------------3-----------|
---------------------------------|
      no station is final

Chorus:
----3-----2-----0-----0------------|
----3-----3-----0-----1------------|
----0-----2-----0-----0------------|
----0-----0-----2-----2------------|
----2-----0-----2-----3------------|
----3----(2)----0------------------|


Pretty straightforward song. Enjoy!
Tap to rate this tab
# A B C D E F G H I J K L M N O P Q R S T U V W X Y Z