Song name
# A B C D E F G H I J K L M N O P Q R S T U V W X Y Z

Rogue Wave - Christians In Black tab

-------------------------------------------
Christians in Black -- Rogue Wave
-------------------------------------------


Song: Christians in Black
Artist: Rogue Wave
Album: Asleep at Heaven's Gates


Drop D tuning: D-A-D-G-B-E
(capo on 2nd fret)


he plays these chords over and over, and a few times he'll let the G and B strings ring. 
has pretty much the same strumming pattern he uses throughout the rest of the album, so 
see how he does it....

(all relative to capo)


Intro
Guitar 1

 E-------------------------------------------------------------------|
 B-------------------------------------------------------------------|
 G-------------------------------------------------------------------|
 D--4-4-4-4-4--4-4-4-4-4--4-4-4-4-4--4-4-4-4-4--0-0-0-0-0--0-0-0-0-0-|
 A--0-0-0-0-0--2-2-2-2-2--0-0-0-0-0--2-2-2-2-2--0-0-0-0-0--2-2-2-2-2-|
 D--0-0-0-0-0-------------0-0-0-0-0-------------0-0-0-0-0------------|


Guitar 2

E--------------------|
B-------2--0---0-----|
G------------4---4---|
D--------------------|
A--------------------|
D--------------------|


[Verse]


E---------------------------------------------|
B--0-0-0-0-0--0-0-0-0-0--0-0-0-0-0--0-0-0-0-0-|
G--0-0-0-0-0--0-0-0-0-0--0-0-0-0-0--0-0-0-0-0-|
D--5-5-5-5-5--5-5-5-5-5--2-2-2-2-2--2-2-2-2-2-|
A--5-5-5-5-5--5-5-5-5-5--2-2-2-2-2--2-2-2-2-2-|
D--5-5-5-5-5--5-5-5-5-5--2-2-2-2-2--2-2-2-2-2-|

E----------------------------------------------|
B----------------------------------------------|
G----------------------------------------------|
D--4-4-4-4-4--4-4-4-4-4--4-4-4-4-4--4-4-4-4-4--|
A--0-0-0-0-0--2-2-2-2-2--0-0-0-0-0--2-2-2-2-2--|
D--0-0-0-0-0-------------0-0-0-0-0-------------|


[chorus]


Guitar 1

E----------------------------------------------|
B--0-0-0-0-0--0-0-0-0-0--0-0-0-0-0--0-0-0-0-0--|
G--0-0-0-0-0--0-0-0-0-0--0-0-0-0-0--0-0-0-0-0--|
D--2-2-2-2-2--2-2-2-2-2--5-5-5-5-5--5-5-5-5-5--|
A--2-2-2-2-2--2-2-2-2-2--5-5-5-5-5--5-5-5-5-5--|
D--2-2-2-2-2--2-2-2-2-2--5-5-5-5-5--5-5-5-5-5--|

Guitar 2

E---------------------|
B---------------------|
G---------------------|
D---------------------|
A------2----------4-5-|
D---------------------|


[Bridge]

Guitar 2

E---------------------------------------------|
B---------------------------------------------|
G---------------------------------------------|
D--2-2-2-2-2--2-2-2-2-2--5-5-5-5-5--5-5-5-5-5-|
A--2-2-2-2-2--2-2-2-2-2--5-5-5-5-5--5-5-5-5-5-|
D--2-2-2-2-2--2-2-2-2-2--5-5-5-5-5--5-5-5-5-5-|

E----------------------------------------------|
B----------------------------------------------|
G----------------------------------------------|
D--0-0-0-0-0--0-0-0-0-0--0-0-0-0-0--0-0-0-0-0--|
A--0-0-0-0-0--2-2-2-2-2--0-0-0-0-0--2-2-2-2-2--|
D--0-0-0-0-0-------------0-0-0-0-0-------------|

Guitar 2

E--------------------|
B-------2--0---0-----|
G------------4---4---|
D--------------------|
A--------------------|
D--------------------|

[Outro]


E-------------------------------------------------------------------|
B-------------------------------------------------------------------|
G-------------------------------------------------------------------|
D--2-2-2-2-2--2-2-2-2-2--5-5-5-5-5--5-5-5-5-5--0-0-0-0-0--0-0-0-0-0-|
A--2-2-2-2-2--2-2-2-2-2--5-5-5-5-5--5-5-5-5-5--0-0-0-0-0--0-0-0-0-0-|
D--2-2-2-2-2--2-2-2-2-2--5-5-5-5-5--5-5-5-5-5--0-0-0-0-0--0-0-0-0-0-|

E-----------------------|
B-----------------------|
G-----------------------|
D--0-0-0-0-0--0-0-0-0-0-|
A--0-0-0-0-0--0-0-0-0-0-|
D--0-0-0-0-0--0-0-0-0-0-|

Guitar 2

E---------------------------------------------------------------|
B--3---3---7---7-----3-3-3-3-3--3-3-3-3-3--3-3-3-3-3--3-3-3-3-3-|
G----0---0---0---0---2-2-2-2-2--2-2-2-2-2--2-2-2-2-2--2-2-2-2-2-|
D--------------------0-0-0-0-0--0-0-0-0-0--0-0-0-0-0--0-0-0-0-0-|
A--------------------0-0-0-0-0--0-0-0-0-0--0-0-0-0-0--0-0-0-0-0-|
D--------------------0-0-0-0-0--0-0-0-0-0--0-0-0-0-0--0-0-0-0-0-|

end on...

E-----------------------|
B-----------------------|
G-----------------------|
D--0-0-0-0-0--0-0-0-0-0-|
A--0-0-0-0-0--0-0-0-0-0-|
D--0-0-0-0-0--0-0-0-0-0-| (repeat, till fade out)

mamas working in the garden
shes picking herbs so she could feed them
the dinner rolls the only value
saying look what I did, so I could feed them
christians in black

shuttled between LA and Oakland
miles and miles between and above them
born and raised to be an alcoholic
were you to old or young to stop it
christians in black

once I faked election
idle eyes that donít get met
with feelings out in the open
every day is just like the next
christians in black
Tap to rate this tab
 
# A B C D E F G H I J K L M N O P Q R S T U V W X Y Z