Song name
# A B C D E F G H I J K L M N O P Q R S T U V W X Y Z

Rogue Wave - Be Kind Remind tab

Be Kind Remind - Rogue Wave

Tabbed by: Matthijs EvB
Email: matthijsvanbevervoorde@gmail.com

Tuning:Standard

Intro/Verse 4x

e|---------------------------------------------------------------------------|
B|-------------1-------0---------5----------3----------3---------------------|
G|----------0------0------------------0--------------------------------------|
D|--------0---------------------------------------0--------------------------|
A|-------------0-------0---------3----------2--------------------------------|
E|---3---------------------3-------------------------------------------------|

(Every 5th time of each verse you get this part)
Nature's Been Good,
e|---------------------------------------------------------------------------|
B|---2------------2---------------2-------------2----------------------------|
G|----------2--------------2--------------2------------2---------------------|
D|-------2--------------2--------------2------------2------------------------|
A|---0------------0---------------0-------------0----------------------------|
E|---------------------------------------------------------------------------|

e|---2------------2----------------------------------------------------------|
B|----------3--------------3-------1-------------1---------------------------|
G|-------2--------------2------------------0---------------0-----------------|
D|---0------------0--------------------2---------------2---------------------|
A|---------------------------------3-------------3---------------------------|
E|---------------------------------------------------------------------------|
Oh really...
e|---------------------------------------------------------------------------|
B|-------------1-------0---------5----------3---------3----------------------|
G|----------0------0------------------0--------------------------------------|
D|--------0---------------------------------------0--------------------------|
A|-------------0-------0---------3----------2--------------------------------|
E|---3---------------------3-------------------------------------------------|

Chorus:

Please be kind..

e|-2----------2------------0---------------0---------------------------------|
B|-------3-----------3-------------------------------------------------------|
G|----2-----------2-----------------0----------------0-----------------------|
D|-0----------0-----------------2----------------2---------------------------|
A|-------------------------3---------------3---------------------------------|
E|---------------------------------------------------------------------------|

e|---------------------------------------------------------------------------|
B|-------------1-------0---------5----------3---------3----------------------|
G|----------0------0------------------0--------------------------------------|
D|--------0---------------------------------------0--------------------------|
A|-------------0-------0---------3----------2--------------------------------|
E|---3---------------------3-------------------------------------------------|

And Rewind...

e|-2----------2------------0---------------0---------------------------------|
B|-------3-----------3-------------------------------------------------------|
G|----2-----------2-----------------0----------------0-----------------------|
D|-0----------0-----------------2----------------2---------------------------|
A|-------------------------3---------------3---------------------------------|
E|---------------------------------------------------------------------------|

e|---------------------------------------------------------------------------|
B|-------------1-------0---------5----------3-------------3------------------|
G|----------0------0------------------0--------------------------------------|
D|--------0------------------------------------------0-----------------------|
A|-------------0-------0---------3----------2--------------------------------|
E|---3---------------------3-------------------------------------------------|

Ahh Ahh.. Ahh Ahh.. Ahhhhhhh


e|---------------------------------------------------------------------------|
B|-5--5----------3--3-------0------------------------------------------------|
G|--------------------------0------------------------------------------------|
D|---------------------------------------------------------------------------|
A|-3--3----------1--1-------3------------------------------------------------|
E|---------------------------------------------------------------------------|
After this the intro/verse again.


With this information you'll find your way through the song. Just listen to the rhythm 
playing and it will almost look exactly the same.

************************************

| /   slide up
| \   slide down
| h   hammer-on
| p   pull-off
| ~   vibrato
| +   harmonic
| x   Mute note
| b   Bend
| pb  Pre-bend
| br  Bend release
| pbr Pre-bend release
| brb Bend release bend

************************************
Tap to rate this tab
 
# A B C D E F G H I J K L M N O P Q R S T U V W X Y Z