Rogue Wave - Ill Never Leave You tab

-------------------------------------------------------------------------------
			     I'll Never Leave You - Rogue Wave
-------------------------------------------------------------------------------
Album: Permalight
Tabbed by: Brandon Peralta
Email: dakid9496@aol.com

Tuning: Standard [Capo on 7]

Listen to recording for strumming pattern. These Are The Chords.
Intro/Verse/Chorus/Outro
e|-----0-------0------0------0--------------|
B|-----0-------0------0------0--------------|      
G|-----1-------1------1------1--------------|      Intro: 2x
D|-----2-------2------2------2--------------|      Verse: 4x
A|-----0-------2------0------2--------------|      Chorus: 2x
E|-----2-------0------2------0--------------|      Outro: 2x
Each chord for four beats

Pre-Chorus
e|------0------0-------|
B|------0------2-------|
G|------1------0-------|
D|------0------2-------|
A|------2------0-------|
E|------0------0-------|

Guitar Break/Solo
e|---------------------------------------------------------------|
B|---------------------------------------------------------------|
G|-----1----1----1-----1----1----1-------1----1----1-------------|
D|-----2----2----2-----2----2----2-------2----2----2-------------|
A|-----0----2----2-----0----2----2-------0----0----0-------------|
E|-----2----4----0-----2----4----0------------0----2-------------|

The order of this song is:
Intro,
Verse,
Pre-Chorus,
Chorus,
Break/Solo,
Verse,
Pre-Chorus,
Chorus,
Break/Solo,
Outro

************************************
Tap to rate this tab
 
# A B C D E F G H I J K L M N O P Q R S T U V W X Y Z