Song name
# A B C D E F G H I J K L M N O P Q R S T U V W X Y Z

Rogue Wave - Sight Lines tab

Capo on fret 2

Riff
e|----1-----1-----1-----3---------------------------------------------------|
B|------1-----1-----3-----5-------------------------------------------------|
G|--------2-----3-----5-----------------------------------------------------|
D|--3-----------------------------------------------------------------------|
A|--------------------------------------------------------------------------|
E|--------------------------------------------------------------------------|

Verse and chorus
    F            Dm           Am           B      C
e|---1--1--1--1---1--1--1--1---0--0--0--0---1--1---3--3---------------------|
B|----1--1--1--1---3--3--3--3---1--1--1--1---3--3---5--5--------------------|
G|-----2-----2------2-----2------2-----2------3------5----------------------|
D|--------3------0-----0----------------------------------------------------|
A|----------------------------0-----0------1------3-------------------------|
E|--1-----------------------------------------------------------------------|

Bridge
    Dm    Am    B      C                    C
e|---1--1--0--0--1--1---3--3-----R-----------3--3------R--------------------|
B|----3--3--1--1--3--3---5--5----E-----T------5--5-----E--------------------|
G|-----2-----2-----3------5------P--X--H-------5-------P--X-----------------|
D|--0----------------------------E--3--E---------------E--3-----------------|
A|--------0-----1------3---------A-----N----3----------A--------------------|
E|-------------------------------T---------------------T--------------------|
Tap to rate this tab
# A B C D E F G H I J K L M N O P Q R S T U V W X Y Z