Song name
# A B C D E F G H I J K L M N O P Q R S T U V W X Y Z

Rogue Wave - Lake Michigan Acoustic tab

Tabbed by Sam de Brunner
Tuning: Standard
Capo: 3
Chords relative to capo

  Chords Used

       G      C      Em7      A7      C      G*      Cadd9            
e|-----3------0-------3-------3-------3------3---------3-----|
B|-----3------1-------3-------2-------1------0---------3-----|
G|-----0------0-------0-------2-------0------0---------0-----|
D|-----0------2-------2-------2-------2------0---------2-----|
A|-----2------3-------2-------0-------3------2---------3-----|
E|-----3------0-------0-------X-------X------3---------X-----|




Intro

e|----12---7---3----12---7---3----10---5---3----10---5---3----|
B|------------------------------------------------------------|
G|------------------------------------------------------------|
D|------------------------------------------------------------|  (X2)
A|------------------------------------------------------------|
E|------------------------------------------------------------|

e|----12---7---3----10---5---3----10---5---3----12---7---3----|
B|------------------------------------------------------------|
G|------------------------------------------------------------|
D|------------------------------------------------------------|  (X2)
A|------------------------------------------------------------|
E|------------------------------------------------------------|


  OR (an easier version if you can successfully maneuver your fingers)


e|----15--------15---------13-------13------------------------|
B|-------15--------15---------13-------13---------------------|
G|----------15--------15---------15-------15------------------|  (X2)
D|------------------------------------------------------------|
A|------------------------------------------------------------|
E|------------------------------------------------------------|

e|----15--------13---------13-------15------------------------|
B|-------15--------13---------13-------15---------------------|
G|----------15--------15---------15-------15------------------|
D|------------------------------------------------------------|  (X2)
A|------------------------------------------------------------|
E|------------------------------------------------------------|
  


 G C  G C  G C  G C  G C  G C  G C  G C


G              C                           G     
Heaven is a switchboard that you want to fight
                 C                          G        
she would even miss you if you taught her sight
            C                     G      
power politician leaning to the right
               C          
baby's got a trust fund
                    Em7          A7      
that she'll want to go off like that
     C          G*     Em7       
get off of my stack
                A7             
leave a little window
 C              G*   Cadd9  G Cadd9  G Cadd9  G Cadd9         
get off of my stack

 G                 C                 G         
Now we wear same-colored yellow uniforms
                                 
sky is burning
 C                          G         
but at least we know we're warm
        C                       G            
go and run yourself a million miles
                  C                   
hoping that the colors run out
        Em7          A7           
and you go off like that
     C          G*   Em7     
get off of my stack
 Em7            A7          
leave a little window
 C             G*   Cadd9  G Cadd9  G Cadd9  G Cadd9                         
get off of my stack

  G           Cadd9          G         Cadd9
You can never see yourself ringing all around it  (X6)

A7                                  
No one, no one, Michigan
A7
you laid back, you laid back, Michigan

Em7          A7              
Not another payoff
 C              G*     Em7       
get off of my stack
                A7             
leave a little window
     C          G*                      
get off of my stack
Em7           A7                                   
you know it won't do
 C              G*   Cadd9                                      
get off of my stack

 G Cadd9  G Cadd9 (X11)

  G           Cadd9          G         Cadd9
You can never see yourself ringing all around it  (X2)

 G Cadd9  G Cadd 9
Tap to rate this tab
# A B C D E F G H I J K L M N O P Q R S T U V W X Y Z