Guitaretab - guitar tabs
Song name
# A B C D E F G H I J K L M N O P Q R S T U V W X Y Z

Rogue Wave - Temporary tab

-------------------------------------------------------------------------------
			     TEMPORARY - Paramore
-------------------------------------------------------------------------------
Tabbed by: Rockett97
Email: rockett97@hotmail.com

Tuning: drop D


Intro

Lead:
e|---------------------------------------------------------------------------|
B|--------------8-8-8-8-8-8-8-8----------------------------------------------|
G|--8-8-8-5-5-5-5-5-5-5-5-5-5-5-(x2)----- -----------------------------------|
D|--6-6-6-6-6-6-6-6-6-6-6-6-6-6----------------------------------------------|
A|---------------------------------------------------------------------------|
D|---------------------------------------------------------------------------|

e|---------------------------------------------------------------------------|
B|---------------------------------------------------------------------------|
G|--6-6-6-5-5-5--------------------------------------------------------------|
D|--------------3-3-3-3-3-3-3-3-(x2)-----------------------------------------|
A|---------------------------------------------------------------------------|
D|---------------------------------------------------------------------------|

e|---------------------------------------------------------------------------|
B|--------------8-8-8-8-8-8-8-8----------------------------------------------|
G|--8-8-8-5-5-5-5-5-5-5-5-5-5-5-(x2)----- -----------------------------------|
D|--6-6-6-6-6-6-6-6-6-6-6-6-6-6----------------------------------------------|
A|---------------------------------------------------------------------------|
D|---------------------------------------------------------------------------|

e|---------------------------------------------------------------------------|
B|---------------------------------------------------------------------------|
G|--6-6-6-5-5-5--------------------------------------------------------------|
D|--------------3-3-3-3-3-3-3-3-(x2)-----------------------------------------|
A|---------------------------------------------------------------------------|
D|---------------------------------------------------------------------------|

Rhythm: (after lead does first part of intro)

e|-------------------------------------------------------------------------------|
B|-------------------------------------------------------------------------------|
G|-------------------------------------------------------------------------------|
D|-11-11-11-11-11-11-11-11-11-11-11-11-11-11-11-11-8-8-8-8-8-8-8-8-8-8-8-8-8-8-8-8|
A|-11-11-11-11-11-11-11-11-11-11-11-11-11-11-11-11-8-8-8-8-8-8-8-8-8-8-8-8-8-8-8-8|
D|-11-11-11-11-11-11-11-11-11-11-11-11-11-11-11-11-8-8-8-8-8-8-8-8-8-8-8-8-8-8-8-8|

e|---------------------------------------------------------------------------|
B|---------------------------------------------------------------------------|
G|---------------------------------------------------------------------------|
D|-3-3-3-3-3-3-3-3-3-3-3-3-3-3-3-3-6-6-6-6-6-6-6-6-6-6-6-6-6-6-6-6-----------|
A|-3-3-3-3-3-3-3-3-3-3-3-3-3-3-3-3-6-6-6-6-6-6-6-6-6-6-6-6-6-6-6-6-----------|
D|-3-3-3-3-3-3-3-3-3-3-3-3-3-3-3-3-6-6-6-6-6-6-6-6-6-6-6-6-6-6-6-6-----------|

e|--------------------------------------------------------------------------------|
B|--------------------------------------------------------------------------------|
G|--------------------------------------------------------------------------------|
D|-8-8-8-8-8-8-8-8-8-8-8-8-8-8-8-8-11-11-11-11-11-11-11-11-11-11-11-11-11-11-11-11|
A|-8-8-8-8-8-8-8-8-8-8-8-8-8-8-8-8-11-11-11-11-11-11-11-11-11-11-11-11-11-11-11-11|
D|-8-8-8-8-8-8-8-8-8-8-8-8-8-8-8-8-11-11-11-11-11-11-11-11-11-11-11-11-11-11-11-11|


Verse

Lead: (listen to song for the rhythm)

e|---------3---------------3--------------------3----------------------------|
B|---------------------------------------------------------------------------|
G|--3/5-5-----------3/5-5-----5----------3/5-5-------------------------------|
D|---------------------------------------------------------------------------|
A|---------------------------------------------------------------------------|
D|---------------------------------------------------------------------------|

e|--6-----------6-------------|
B|-----4-----4-----4----4---4| (x3)
G|--------5-----------5---5---|
D|----------------------------|
A|----------------------------|
D|----------------------------|

e|--6-------------------------|
B|-----4----------------------|
G|--------5-------------------|
D|------------3-1-3-1-3-------|
A|------------3-1-3-1-3-------|
D|------------3-1-3-1-3-------|

Rhythm:

e|--------------------------------------------------------------------------------|
B|--------------------------------------------------------------------------------|
G|--------------------------------------------------------------------------------|
D|-6-6-6-6-6-6-6-6-6-6-6-6-6-6-6-6-10-10-10-10-10-10-10-10-10-10-10-10-10-10-10-10| 
A|-6-6-6-6-6-6-6-6-6-6-6-6-6-6-6-6-10-10-10-10-10-10-10-10-10-10-10-10-10-10-10-10| (x2)
D|-6-6-6-6-6-6-6-6-6-6-6-6-6-6-6-6-10-10-10-10-10-10-10-10-10-10-10-10-10-10-10-10|
   x x x x x x x x x x x x x x x x  x  x  x  x  x  x  x  x  x  x  x  x  x  x  x  x

e|---------------------------------------------------------------------------|
B|---------------------------------------------------------------------------|
G|---------------------------------------------------------------------------|
D|-6-6-6-6--6--6--6-6-6-6--10--10--10--10--10--10--10-10-10-10------------|
A|-6--6--6--6--6--6--6-6-6-6--10--10--10--10--10--10--10-10-10-10------------| (x2)
D|-6--6--6--6--6--6--6-6-6-6--10--10--10--10--10--10--10-10-10-10------------|

Then
e|------------------------|
B|------------------------|
G|------------------------|
D|-3-1-3-1-3--------------|
A|-3-1-3-1-3--------------|
D|-3-1-3-1-3--------------|

Chorus

Lead:
e|---------------------------------------------------------------------------|
B|--------------8-8-8-8-8-8-8-8----------------------------------------------|
G|--8-8-8-5-5-5-5-5-5-5-5-5-5-5-(x2)----- -----------------------------------|
D|--6-6-6-6-6-6-6-6-6-6-6-6-6-6----------------------------------------------|
A|---------------------------------------------------------------------------|
D|---------------------------------------------------------------------------|

e|---------------------------------------------------------------------------|
B|---------------------------------------------------------------------------|
G|--6-6-6-5-5-5--------------------------------------------------------------|
D|--------------3-3-3-3-3-3-3-3-(x2)-----------------------------------------|
A|---------------------------------------------------------------------------|
D|---------------------------------------------------------------------------|

e|---------------------------------------------------------------------------|
B|--------------8-8-8-8-8-8-8-8----------------------------------------------|
G|--8-8-8-5-5-5-5-5-5-5-5-5-5-5-(x2)----- -----------------------------------|
D|--6-6-6-6-6-6-6-6-6-6-6-6-6-6----------------------------------------------|
A|---------------------------------------------------------------------------|
D|---------------------------------------------------------------------------|

e|---------------------------------------------------------------------------|
B|---------------------------------------------------------------------------|
G|--6-6-6-5-5-5--------------------------------------------------------------|
D|--------------3-3-3-3-3-3-3-3-(x2)-----------------------------------------|
A|---------------------------------------------------------------------------|
D|---------------------------------------------------------------------------|


Rhythm:
e|---------------------------------------------------------------------------|
B|---------------------------------------------------------------------------|
G|---------------------------------------------------------------------------|
D|--6-6-6-6-6-6-6-6-6-6-6-6-6-6-6-6-3-3-3-3-3-3-3-3-3-3-3-3-3-3-3-3----------|
A|--6-6-6-6-6-6-6-6-6-6-6-6-6-6-6-6-3-3-3-3-3-3-3-3-3-3-3-3-3-3-3-3----------|
D|--6-6-6-6-6-6-6-6-6-6-6-6-6-6-6-6-3-3-3-3-3-3-3-3-3-3-3-3-3-3-3-3----------|

e|--------------------------------------------------------------------------------|
B|--------------------------------------------------------------------------------|
G|--------------------------------------------------------------------------------|
D|-11-11-11-11-11-11-11-11-11-11-11-11-11-11-11-11-8-8-8-8-8-8-8-8-8-8-8-8-8-8-8-8|
A|-11-11-11-11-11-11-11-11-11-11-11-11-11-11-11-11-8-8-8-8-8-8-8-8-8-8-8-8-8-8-8-8|
D|-11-11-11-11-11-11-11-11-11-11-11-11-11-11-11-11-8-8-8-8-8-8-8-8-8-8-8-8-8-8-8-8|

e|---------------------------------------------------------------------------|
B|---------------------------------------------------------------------------|
G|---------------------------------------------------------------------------|
D|-3-3-3-3-3-3-3-3-3-3-3-3-3-3-3-3-6-6-6-6-6-6-6-6-6-6-6-6-6-6-6-6-----------|
A|-3-3-3-3-3-3-3-3-3-3-3-3-3-3-3-3-6-6-6-6-6-6-6-6-6-6-6-6-6-6-6-6-----------|
D|-3-3-3-3-3-3-3-3-3-3-3-3-3-3-3-3-6-6-6-6-6-6-6-6-6-6-6-6-6-6-6-6-----------|

e|--------------------------------------------------------------------------------|
B|--------------------------------------------------------------------------------|
G|--------------------------------------------------------------------------------|
D|-11-11-11-11-11-11-11-11-11-11-11-11-11-11-11-11-8-8-8-8-8-8-8-8-8-8-8-8-8-8-8-8|
A|-11-11-11-11-11-11-11-11-11-11-11-11-11-11-11-11-8-8-8-8-8-8-8-8-8-8-8-8-8-8-8-8|
D|-11-11-11-11-11-11-11-11-11-11-11-11-11-11-11-11-8-8-8-8-8-8-8-8-8-8-8-8-8-8-8-8|

Verse

Lead: (listen to song for the rhythm)

e|---------3---------------3--------------------3---------|
B|--------------------------------------------------------|
G|--3/5-5-----------3/5-5-----5----------3/5-5------------|
D|--------------------------------------------------------|
A|--------------------------------------------------------|
D|--------------------------------------------------------|

e|--6-----------6-------------|
B|-----4-----4-----4----4---4| (x3)
G|--------5-----------5---5---|
D|----------------------------|
A|----------------------------|
D|----------------------------|

e|--6-------------------------|
B|-----4----------------------|
G|--------5-------------------|
D|------------3-1-3-1-3-------|
A|------------3-1-3-1-3-------|
D|------------3-1-3-1-3-------|
Rhythm:
[ Tab from: http://www.guitaretab.com/r/rogue-wave/80907.html ]
e|--------------------------------------------------------------------------------|
B|--------------------------------------------------------------------------------|
G|--------------------------------------------------------------------------------|
D|-6-6-6-6-6-6-6-6-6-6-6-6-6-6-6-6-10-10-10-10-10-10-10-10-10-10-10-10-10-10-10-10| 
A|-6-6-6-6-6-6-6-6-6-6-6-6-6-6-6-6-10-10-10-10-10-10-10-10-10-10-10-10-10-10-10-10| (x2)
D|-6-6-6-6-6-6-6-6-6-6-6-6-6-6-6-6-10-10-10-10-10-10-10-10-10-10-10-10-10-10-10-10|
   x x x x x x x x x x x x x x x x  x  x  x  x  x  x  x  x  x  x  x  x  x  x  x  x

e|---------------------------------------------------------------------------|
B|---------------------------------------------------------------------------|
G|---------------------------------------------------------------------------|
D|-6-6-6-6--6--6--6-6-6-6--10--10--10--10--10--10--10-10-10-10------------|
A|-6--6--6--6--6--6--6-6-6-6--10--10--10--10--10--10--10-10-10-10------------| (x2)
D|-6--6--6--6--6--6--6-6-6-6--10--10--10--10--10--10--10-10-10-10------------|

Then
e|------------------------|
B|------------------------|
G|------------------------|
D|-3-1-3-1-3--------------|
A|-3-1-3-1-3--------------|
D|-3-1-3-1-3--------------|

Chorus

Lead:
e|---------------------------------------------------------------------------|
B|--------------8-8-8-8-8-8-8-8----------------------------------------------|
G|--8-8-8-5-5-5-5-5-5-5-5-5-5-5-(x2)----- -----------------------------------|
D|--6-6-6-6-6-6-6-6-6-6-6-6-6-6----------------------------------------------|
A|---------------------------------------------------------------------------|
D|---------------------------------------------------------------------------|

e|---------------------------------------------------------------------------|
B|---------------------------------------------------------------------------|
G|--6-6-6-5-5-5--------------------------------------------------------------|
D|--------------3-3-3-3-3-3-3-3-(x2)-----------------------------------------|
A|---------------------------------------------------------------------------|
D|---------------------------------------------------------------------------|

e|---------------------------------------------------------------------------|
B|--------------8-8-8-8-8-8-8-8----------------------------------------------|
G|--8-8-8-5-5-5-5-5-5-5-5-5-5-5-(x2)----- -----------------------------------|
D|--6-6-6-6-6-6-6-6-6-6-6-6-6-6----------------------------------------------|
A|---------------------------------------------------------------------------|
D|---------------------------------------------------------------------------|

e|---------------------------------------------------------------------------|
B|---------------------------------------------------------------------------|
G|--6-6-6-5-5-5--------------------------------------------------------------|
D|--------------3-3-3-3-3-3-3-3-(x2)-----------------------------------------|
A|---------------------------------------------------------------------------|
D|---------------------------------------------------------------------------|


Rhythm:
e|---------------------------------------------------------------------------|
B|---------------------------------------------------------------------------|
G|---------------------------------------------------------------------------|
D|--6-6-6-6-6-6-6-6-6-6-6-6-6-6-6-6-3-3-3-3-3-3-3-3-3-3-3-3-3-3-3-3----------|
A|--6-6-6-6-6-6-6-6-6-6-6-6-6-6-6-6-3-3-3-3-3-3-3-3-3-3-3-3-3-3-3-3----------|
D|--6-6-6-6-6-6-6-6-6-6-6-6-6-6-6-6-3-3-3-3-3-3-3-3-3-3-3-3-3-3-3-3----------|

e|--------------------------------------------------------------------------------|
B|--------------------------------------------------------------------------------|
G|--------------------------------------------------------------------------------|
D|-11-11-11-11-11-11-11-11-11-11-11-11-11-11-11-11-8-8-8-8-8-8-8-8-8-8-8-8-8-8-8-8|
A|-11-11-11-11-11-11-11-11-11-11-11-11-11-11-11-11-8-8-8-8-8-8-8-8-8-8-8-8-8-8-8-8|
D|-11-11-11-11-11-11-11-11-11-11-11-11-11-11-11-11-8-8-8-8-8-8-8-8-8-8-8-8-8-8-8-8|

e|---------------------------------------------------------------------------|
B|---------------------------------------------------------------------------|
G|---------------------------------------------------------------------------|
D|-3-3-3-3-3-3-3-3-3-3-3-3-3-3-3-3-6-6-6-6-6-6-6-6-6-6-6-6-6-6-6-6-----------|
A|-3-3-3-3-3-3-3-3-3-3-3-3-3-3-3-3-6-6-6-6-6-6-6-6-6-6-6-6-6-6-6-6-----------|
D|-3-3-3-3-3-3-3-3-3-3-3-3-3-3-3-3-6-6-6-6-6-6-6-6-6-6-6-6-6-6-6-6-----------|

e|--------------------------------------------------------------------------------|
B|--------------------------------------------------------------------------------|
G|--------------------------------------------------------------------------------|
D|-11-11-11-11-11-11-11-11-11-11-11-11-11-11-11-11-8-8-8-8-8-8-8-8-8-8-8-8-8-8-8-8|
A|-11-11-11-11-11-11-11-11-11-11-11-11-11-11-11-11-8-8-8-8-8-8-8-8-8-8-8-8-8-8-8-8|
D|-11-11-11-11-11-11-11-11-11-11-11-11-11-11-11-11-8-8-8-8-8-8-8-8-8-8-8-8-8-8-8-8|

(then drum solo)

Bridge

Lead:
e|---------------------------------------------------------|
B|--8/9-8------8/9-8---------8/9-8------8/9-8--------------|
G|--------8----------8-------------8----------8------------| (x4)
D|----------8----------8-------------8-----------8--10-----|
A|---------------------------------------------------------|
D|---------------------------------------------------------|

e|---------------------------------------------------------|
B|---------------------------------------------------------|
G|--17-17-17-17-17-17-17-17-17-17-17-17-17-17-17-17\-------|
D|---x--x--x--x--x--x--x--x--x--x--x--x--x--x--x--x--------|
A|--15-15-15-15-15-15-15-15-15-15-15-15-15-15-15-15\-------|
D|---------------------------------------------------------|

Rhythm:
e|--------------------------------------------------------------------------------|
B|--------------------------------------------------------------------------------|
G|--------------------------------------------------------------------------------|
D|-8-8-8-8-8-8-8-8-8-8-8-8-8-8-8-8-11-11-11-11-11-11-11-11-11-11-11-11-11-11-11-11|
A|-8-8-8-8-8-8-8-8-8-8-8-8-8-8-8-8-11-11-11-11-11-11-11-11-11-11-11-11-11-11-11-11| (x4)
D|-8-8-8-8-8-8-8-8-8-8-8-8-8-8-8-8-11-11-11-11-11-11-11-11-11-11-11-11-11-11-11-11|

Chorus

Lead:
e|---------------------------------------------------------------------------|
B|--------------8-8-8-8-8-8-8-8----------------------------------------------|
G|--8-8-8-5-5-5-5-5-5-5-5-5-5-5-(x2)----- -----------------------------------|
D|--6-6-6-6-6-6-6-6-6-6-6-6-6-6----------------------------------------------|
A|---------------------------------------------------------------------------|
D|---------------------------------------------------------------------------|

e|---------------------------------------------------------------------------|
B|---------------------------------------------------------------------------|
G|--6-6-6-5-5-5--------------------------------------------------------------|
D|--------------3-3-3-3-3-3-3-3-(x2)-----------------------------------------|
A|---------------------------------------------------------------------------|
D|---------------------------------------------------------------------------|

e|---------------------------------------------------------------------------|
B|--------------8-8-8-8-8-8-8-8----------------------------------------------|
G|--8-8-8-5-5-5-5-5-5-5-5-5-5-5-(x2)----- -----------------------------------|
D|--6-6-6-6-6-6-6-6-6-6-6-6-6-6----------------------------------------------|
A|---------------------------------------------------------------------------|
D|---------------------------------------------------------------------------|

e|---------------------------------------------------------------------------|
B|---------------------------------------------------------------------------|
G|--6-6-6-5-5-5--------------------------------------------------------------|
D|--------------3-3-3-3-3-3-3-3-(x2)-----------------------------------------|
A|---------------------------------------------------------------------------|
D|---------------------------------------------------------------------------|


Rhythm:
e|---------------------------------------------------------------------------|
B|---------------------------------------------------------------------------|
G|---------------------------------------------------------------------------|
D|--6-6-6-6-6-6-6-6-6-6-6-6-6-6-6-6-3-3-3-3-3-3-3-3-3-3-3-3-3-3-3-3----------|
A|--6-6-6-6-6-6-6-6-6-6-6-6-6-6-6-6-3-3-3-3-3-3-3-3-3-3-3-3-3-3-3-3----------|
D|--6-6-6-6-6-6-6-6-6-6-6-6-6-6-6-6-3-3-3-3-3-3-3-3-3-3-3-3-3-3-3-3----------|

e|--------------------------------------------------------------------------------|
B|--------------------------------------------------------------------------------|
G|--------------------------------------------------------------------------------|
D|-11-11-11-11-11-11-11-11-11-11-11-11-11-11-11-11-8-8-8-8-8-8-8-8-8-8-8-8-8-8-8-8|
A|-11-11-11-11-11-11-11-11-11-11-11-11-11-11-11-11-8-8-8-8-8-8-8-8-8-8-8-8-8-8-8-8|
D|-11-11-11-11-11-11-11-11-11-11-11-11-11-11-11-11-8-8-8-8-8-8-8-8-8-8-8-8-8-8-8-8|

e|---------------------------------------------------------------------------|
B|---------------------------------------------------------------------------|
G|---------------------------------------------------------------------------|
D|-3-3-3-3-3-3-3-3-3-3-3-3-3-3-3-3-6-6-6-6-6-6-6-6-6-6-6-6-6-6-6-6-----------|
A|-3-3-3-3-3-3-3-3-3-3-3-3-3-3-3-3-6-6-6-6-6-6-6-6-6-6-6-6-6-6-6-6-----------|
D|-3-3-3-3-3-3-3-3-3-3-3-3-3-3-3-3-6-6-6-6-6-6-6-6-6-6-6-6-6-6-6-6-----------|

e|--------------------------------------------------------------------------------|
B|--------------------------------------------------------------------------------|
G|--------------------------------------------------------------------------------|
D|-11-11-11-11-11-11-11-11-11-11-11-11-11-11-11-11-8-8-8-8-8-8-8-8-8-8-8-8-8-8-8-8|
A|-11-11-11-11-11-11-11-11-11-11-11-11-11-11-11-11-8-8-8-8-8-8-8-8-8-8-8-8-8-8-8-8|
D|-11-11-11-11-11-11-11-11-11-11-11-11-11-11-11-11-8-8-8-8-8-8-8-8-8-8-8-8-8-8-8-8|

Outro

Lead:
e|--6-----------6-------------|
B|-----4-----4-----4----4---4| (x3)
G|--------5-----------5---5---|
D|----------------------------|
A|----------------------------|
D|----------------------------|

e|--6-------------------------|
B|-----4----------------------|
G|--------5-------------------|
D|------------3-1-3-1-3-------|
A|------------3-1-3-1-3-------|
D|------------3-1-3-1-3-------|

Rhythm:
e|---------------------------------------------------------------------------|
B|---------------------------------------------------------------------------|
G|---------------------------------------------------------------------------|
D|-6-6-6-6--6--6--6-6-6-6--10--10--10--10--10--10--10-10-10-10------------|
A|-6--6--6--6--6--6--6-6-6-6--10--10--10--10--10--10--10-10-10-10------------| (x2)
D|-6--6--6--6--6--6--6-6-6-6--10--10--10--10--10--10--10-10-10-10------------|
Then
e|------------------------|
B|------------------------|
G|------------------------|
D|-3-1-3-1-3--------------|
A|-3-1-3-1-3--------------|
D|-3-1-3-1-3--------------|


| /  slide up
| \  slide down
| h  hammer-on
| p  pull-off
| ~  vibrato
| +  harmonic
| x  Mute note
===============================================================================

Related for Temporary tab