Song name
# A B C D E F G H I J K L M N O P Q R S T U V W X Y Z

Rogue Wave - Falcon Settles Me tab

Falcon Settles Me

This is off of Out of the Shadow. I also submitted this to www.indieguitartabs.com which 
a great site if you don't already know about it.


Intro Riff
e|------------------|
B|--0--1-1---0--1-2-|
G|-0----2---0----2--|
D|0--2-----0--2-----|
A|------------------|
E|------------------|

 [G] [A]  [G] [A]

Chord Patterns Used
(for the other chords he just strums. Listen for the rhythm)

C
e|-------------|
B|-----1-------|
G|-------0---0-|
D|---2-----2---|
A|3------------|
E|-------------|

Am
e|-------------|
B|-----1-------|
G|-------2---2-|
D|---2-----2---|
A|0------------|
E|-------------|

Em
e|-------------|
B|-----0-------|
G|-------0---0-|
D|---2-----2---|
A|-------------|
E|0------------|


Intro Riff


C	   Am
No one can do the things you do,
Em		Am
  no one 'round here.
C	      Am
robot and industrious voodoo
Em	     Am
  on all the window shades.
Em		 Am
  see, people be undivided?
Em		Am
  you open your window pane
Em		 Am
  look into your little garden.
Em


[intro riff]

C		     Am
you're the seed and I am the planter,
Em		Am
  just you and I.
C			Am
roll through poppies and oleander
Em	     Am
  on all the window shade
Em		 Am
  see, people be undivided?
Em		Am
  you open your window pane
Em		Am
  and into your little garden
Em

[Main intro riff]
no one is broken.
no one I see.

Dm7
but when the falcon settles me,
G
then I know I'm right.
Dm7
if your good looks could settle me,
G
then I know I'm right.

[Main intro riff]

Dm7
and when the falcon settles me,
G
then I know I'm right.
Dm7
if your good looks could settle me,
G
then I know I'm right
Tap to rate this tab
 
# A B C D E F G H I J K L M N O P Q R S T U V W X Y Z