Song name
# A B C D E F G H I J K L M N O P Q R S T U V W X Y Z

Rogue Wave - Lake Michigan tab

-------------------------------------------------------------------------------
			     Lake Michigan - Rogue Wave
-------------------------------------------------------------------------------
Tabbed by:sorrykid77
Email:coleboy77

Tuning:Standard

Guitar 1 - Clean Electric (lead)
Guitar 2 - Clean Acoustic (rhythem)


Guitar 1
0:10-0:28
e|--15---------15-----------13---------13----------| x2
B|------15--------15-----------13---------13-------|
G|----------15-------15-----------15---------15----|   
D|-------------------------------------------------|
A|-------------------------------------------------|
E|-------------------------------------------------|


e|--15---------13---------13---------|
B|------15--------13---------13------|
G|----------15-------15---------15---|
D|-----------------------------------|
A|-----------------------------------|
E|-----------------------------------|

e|--15---------15-----------13---------13---------15--------| 
B|------15--------15-----------13---------13---------15-----|
G|----------15-------15-----------15---------15---------15--|   
D|----------------------------------------------------------|
A|----------------------------------------------------------|
E|----------------------------------------------------------|


The last progression of 15's fades out and guitar 2 starts strumming chords


0:37-0:45
e|--15---------15-----------13---------13----------| x2
B|------15--------15-----------13---------13-------|
G|----------15-------15-----------15---------15----|   
D|-------------------------------------------------|
A|-------------------------------------------------|
E|-------------------------------------------------|


0:55-1:11
e|----------------------------------------------------------|
B|----------------------------------------------------------|
G|----7---7---7---7---7---7----10----10----10----8---8---8--|
D|--8---8---8---8---8---8----8-----8-----8-----8---8---8----|
A|----------------------------------------------------------|
E|----------------------------------------------------------|


1:20-1:28
e|----------------------------------------------------------|
B|----------------------------------------------------------|
G|----7---7---7---7---7---7----10----10----10----8---8---8--|
D|--8---8---8---8---8---8----8-----8-----8-----8---8---8----|
A|----------------------------------------------------------|
E|----------------------------------------------------------|

this part makes a small transistion that isnt noticable at first listen
in fact if you didnt change into this next riff people probably wouldnt 
notice, but for the sake of the song its there

1:29-1:38
e|-------------------------| x2
B|-------------------------|
G|-----7-7---10-10----8-8--|
D|---8-----8--------8------|
A|-------------------------|
E|-------------------------|


1:46
e|--------| 
B|--------|
G|--------|
D|--13/8--|
A|--------|
E|--------|


1:55-2:04
e|--13-15-15-11-13-13-10-11-11-8-11-11--| x2
B|--------------------------------------|
G|--------------------------------------|
D|--------------------------------------|
A|--------------------------------------|
E|--------------------------------------|


2:28-2:40
e|---------------| x3 
B|---------------|
G|---------------|
D|--15-14-13-12--|
A|---------------|
E|---------------|


2:58-3:24
e|--15---------15-----------13---------13----------| x5
B|------15--------15-----------13---------13-------|
G|----------15-------15-----------15---------15----|   
D|-------------------------------------------------|
A|-------------------------------------------------|
E|-------------------------------------------------|


Guitar 2 (Capo on 1st fret through the whole song for Guitar 2, so 
all of the Guitar 2 tab is relative to the capo)
Intro/Verse
0:28-0:54
1:12-1:19
1:38-2:03
    A    A/D
e|---------------| 
B|--2-----2------|
G|--2-----2------|
D|--2------------|
A|---------------|
E|---------------|
It switches between those two chords until the chorus

Chorus
0:55-1:11
1:20-1:38
2:28-Until End
    G       C      D#     A#
e|-------------------------------|
B|-------------------------------|
G|----------4--4---7--7----------|
D|--4--4----4--4---7--7---7--7---|
A|--4--4----2--2---5--5---7--7---|
E|--2--2------------------5--5---|

Interlude
2:04-2:27
e|-------------------|
B|-------------------|
G|--4--4----7--6--4--|
D|--4--4----7--7--4--|
A|--2--2----5--4--2--|
E|-------------------|

Guitar 3 and 4 are not neccesarily guitars, they are more of a tone
if you wanted you could play them with anything

Guitar 3
2:42-Keeps playing very low in the background until 3:24
e|-----------------| 
B|--15--11---------|
G|----------10--8--|
D|-----------------|
A|-----------------|
E|-----------------|

Guitar 4
2:49-Keeps playing very low in the background until 3:24
e|--------------| 
B|--------------|
G|--------------|
D|--------------|
A|--17--15--13--|
E|--------------|


| /  slide up
| \  slide down
| h  hammer-on
| p  pull-off
| ~  vibrato
| +  harmonic
| x  Mute note
===============================================================================
Tap to rate this tab
 
# A B C D E F G H I J K L M N O P Q R S T U V W X Y Z