Song name
# A B C D E F G H I J K L M N O P Q R S T U V W X Y Z

Rohan Rathore - Emptiness tab

This is my first tab so please leave a reply and post comments below.


--------------------------------------------------------|
----9--12--9-----9--12--9-----9--12--9-----9--12--9-----|
-9------------9------------8------------8---------------|
--------------------------------------------------------|
--------------------------------------------------------|
--------------------------------------------------------|


---------------------------------------------------------|
--------10-------------10-----------------------9-----9--|
-----9------9-------9------9------8--11--8--11-----11----|
-11-------------11-------------9-------------------------|
---------------------------------------------------------|
---------------------------------------------------------|
Thanks for reading this :)
Tap to rate this tab
# A B C D E F G H I J K L M N O P Q R S T U V W X Y Z