Song name
# A B C D E F G H I J K L M N O P Q R S T U V W X Y Z

Roisin Murphy - You Know Me Better Acoustic tab

www.roisinmurphy.com
Roisin Murphy - You Know Me Better (Acoustic Version)
Tab by: Enjay doChys

E|------------------------------------------------|
B|------------------------------------------------|
G|-------5-5--7-7---------------------------------| x8
D|--7-7--3-3--5-5--5-5-5-5------------------------|
A|--5-5------------3-3-3-3------------------------|
E|------------------------------------------------|

E|------------------------------------------------|
B|------------------------------------------------|
G|--2-4--5-5--7-7---------------------------------| x3
D|--0-0--0-3--5-5--5-5-5-5------------------------|
A|-----------------3-3-3-3------------------------|
E|------------------------------------------------|

E|------------0-0-0-0-----------------------------|
B|------------0-0-0-3-----------------------------|
G|--2-4--5-5-----------5-5-5-5--------------------|
D|--0-0--0-3--------------------------------------|
A|------------------------------------------------|
E|------------3-3-3-3--5-5-5-5--------------------|

E|------------------------------------------------|
B|--0-0--1-1--3-3--0-0-0---0-0--1-1--5-5--3-------|
G|------------------------------------------5-5---| x2
D|------------------------------------------------|
A|------------------------------------------------|
E|--0-0--1-1--1-1--3-3-3---0-0--1-1--3-3--5-5-5---|

The chords he's struming are: Am, F, G

There's a funk rhytm pattern at the end of the song. It's quiet tricky, but that's a 
one. You need to listen and practise a lot to get in to it. Anyway, the main notes are A 
D. The chord looks like this:

E|----10-------|
B|----10-------|
G|--x----------|
D|--5----------|
A|-------------|
E|-------------|

www.roisinmurphy.com
Tap to rate this tab
 
# A B C D E F G H I J K L M N O P Q R S T U V W X Y Z