Song name
# A B C D E F G H I J K L M N O P Q R S T U V W X Y Z

Roisin O - How Long chords

-------------------------------------------------------------------------------
                                      HOW LONG - Róisín O - www.roisino.com
-------------------------------------------------------------------------------

Tuning:DADDAD

     D5  Bm7/D  D5add7    Gsus2   Asus4   Bm  Dsus2   D       D   Dsus2sus4   D      D5

D|----0----0------0-------0-----0-----0----0----0----0-----0------0----0----|
A|----0----0------0-------0-----0-----0----0----0----0-----0------0----0----|
D|----0----0------0-------0-----0-----0----0----0----0-----0------0----0----|
D|----0----0------0-------0-----0-----0----0----0----4-----5------7----0----|
A|----5----2------4-------5-----7-----9----7----9----5-----7------9----0----|
D|----0----0------0-------5-----7-----9----0----0----0-----0------0----0----|

Intro

D|----0----0----0----0----0----|
A|----0----0----0----0----0----|
D|----0----0----0----0----0----|
D|----0----0----0----0----0----|
A|----5----5----2----4----5----|
D|----0----0----0----0----0----|
               Oo,       oo,      oo,

Verse 1
D|----0----0----0----0----0----0----0----0---|
A|----0----0----0----0----0----0----0----0---|
D|----0----0----0----0----0----0----0----0---|
D|----0----0----0----0----0----0----0----0---|   (x2)
A|----5----5----5----5----2----4----5----5---|
D|----0----0----0----0----0----0----0----0---|

How long must we stand here?
How long can you stand it?
There's no end in sight.
Think twice, are you ready?
Hold still say you're stready.
This might be your life.

Bridge

D|----0----0----0----0----0----0----0----0----|
A|----0----0----0----0----0----0----0----0----|
D|----0----0----0----0----0----0----0----0----|
D|----0----0----0----0----0----0----0----0----|
A|----5----5----9----9----5----5----7----7----|
D|----5----5----9----9----5----5----7----7----|

It stretches out before your eyes.
And passion please, tell me no lies.

Chorus
D|----0----0----0----0----0----0----0----0----0----0----0--|
A|----0----0----0----0----0----0----0----0----0----0----0--|
D|----0----0----0----0----0----0----0----0----0----0----0--|
D|----0----0----0----0----0----0----0----0----0----0----0--|  (x2)
A|----5----7----9----5----7----9----5----7----9----5----5--|
D|----0----0----0----0----0----5----0----0----0----5----5--|

Oh, oh, oh, oh, oh, oh, thats all I want
Oh, oh, oh, oh, oh, oh, thats all I want

Verse 2

D|----0----0----0----0----0----0----0----0-|
A|----0----0----0----0----0----0----0----0-|
D|----0----0----0----0----0----0----0----0-|
D|----0----0----0----0----0----0----0----0-|
A|----5----5----5----5----2----4----5----5-|
D|----0----0----0----0----0----0----0----0-|

Tell me you'll replace it,
But this way they won't allow you to make it, lord it's wearing thin.

Bridge
D|----0----0----0----0----0----0----0----0----|
A|----0----0----0----0----0----0----0----0----|
D|----0----0----0----0----0----0----0----0----|
D|----0----0----0----0----0----0----0----0----|
A|----5----5----9----9----5----5----7----7----|
D|----5----5----9----9----5----5----7----7----|

It stretches out before your eyes.
And passion please, tell me no lies.

Chorus
D|----0----0----0----0----0----0----0----0----0----0----0--|
A|----0----0----0----0----0----0----0----0----0----0----0--|
D|----0----0----0----0----0----0----0----0----0----0----0--|
D|----0----0----0----0----0----0----0----0----0----0----0--|  (x2)
A|----5----7----9----5----7----9----5----7----9----5----5--|
D|----0----0----0----0----0----5----0----0----0----5----5--|

Oh, oh, oh, oh, oh, oh, thats all I want
Oh, oh, oh, oh, oh, oh, thats all I want

D|----0----0----0----0----0----|
A|----0----0----0----0----0----|
D|----0----0----0----0----0----|
D|----0----0----0----0----0----|
A|----5----5----2----4----5----|
D|----0----0----0----0----0----|
                            Oo,       oo,      oo,


Last Chorus
D|----0----0----0----0----0----0----0----0----0----0----0---|
A|----0----0----0----0----0----0----0----0----0----0----0---|
D|----0----0----0----0----0----0----0----0----0----0----0---|
D|----0----0----0----0----0----0----0----0----0----0----0---|   (x4)
A|----5----7----9----5----7----9----5----7----9----5----5---|
D|----0----0----0----0----0----5----0----0----0----5----5---|

Way-o, Way-o, bad-ap-a day-o! (x6)
(Say that you're steady this might be your life) That's all I want
(Say that you're steady this might be your life) That's all I want

D|----0----0----0----0----0----0----0----0----0----0----0----|
A|----0----0----0----0----0----0----0----0----0----0----0----|
D|----0----0----0----0----0----0----0----0----0----0----0----|
D|----4----5----7----4----5----7----4----5----7----0----0----|   (x2)
A|----5----7----9----5----7----9----5----7----9----5----5(0)-|
D|----0----0----0----0----0----5----0----0----0----5----5(0)-|

(Say that you're steady this might be your life) That's all I want
(Say that you're steady this might beeeeeee) That's all I... want
Tap to rate this tab
# A B C D E F G H I J K L M N O P Q R S T U V W X Y Z