Song name
# A B C D E F G H I J K L M N O P Q R S T U V W X Y Z

Rojo - Bajo Tu Control tab

Gtr(E A D G B E)
4/4
Tono: A

Intro
  F#5                E5
|-----------------------------------------|
|-----------------------------------------|
|-----------------------------------------|
|-----11-----11---11-----9-----9---9------|
|-9-9----9-9----9----7-7---7-7---7--------|
|-----------------------------------------|x2(Usar delay)

Versos
  F#m  D    C#m  E            D5
|-----------------------   ---------------|
|-7-7--7-7--5-5--9-9-9--   ---------------|
|-6-6--7-7--6-6--9-9-9--   ---7-7-7-7-----|
|-----------------------   ---7-7-7-7-----|
|-----------------------   ---5-5-5-5-----|
|-----------------------x3 ---------------|x2

Coro
  A            E        F#m       D
|-----------------------------------------
|-10-10-10-10--9-9-9-9--7-7-7-7---7-7-7-7-
|-9--9--9--9---9-9-9-9--6-6-6-6---7-7-7-7-
|-----------------------------------------
|-----------------------------------------
|----------------------------------------- x2

narana narana.......
  F#m       D        A            E
------------------------------------------|
--7-7-7-7---7-7-7-7--10-10-10-10--9-9-9-9-|
--6-6-6-6---7-7-7-7--9--9--9--9---9-9-9-9-|
------------------------------------------|
------------------------------------------|
------------------------------------------|

Puente
 F#5 D5   A5  E5
|--------------------|
|--------------------|
|-----7-7-----9-9----|
|-4-4-7-7-7-7-9-9----|
|-4-4-5-5-7-7-7-7----|
|-2-2-----5-5--------|

:)

Tap to rate this tab
 
# A B C D E F G H I J K L M N O P Q R S T U V W X Y Z