Song name
# A B C D E F G H I J K L M N O P Q R S T U V W X Y Z

Rojo - Adios Goodbye tab

Help us improve GuitareTab! Take a short survey!
SOLO
          A             F#m        G          F#m         F          E
E|----------------------2b2--|--------------------------------------------|
B|----------------------2b2--|--------------------------------------------|
G|----4-6-------4-6----------|-----4b4--4(*8) ----------------------------|
D|--7-----7---7-----4--------|-4h7------------7--7--7(*3)-6(*3)-6h7-6/19--|
A|---------------------------|--------------------------------------------|
E|---------------------------|--------------------------------------------|

             A             F#m
E|-------------------------------------------------|
B|-------------------------------------------------|
G|-----16-18---------16-18---------18b19b18-16-18--|
D|--19-------19---19-------19/16-------------------|
A|-------------------------------------------------|
E|-------------------------------------------------|
           G              F#m            F            E
E|--------------------------------------------------------|
B|--------------------------------------------------------|
G|---------16b16--16(*8)------16----------------16----16--|
D|--16h19--16b16--16(*8)--19--19--19(*3)-18(*3)-18h19-18--|
A|--------------------------------------------------------|
E|--------------------------------------------------------|

Suerete :), :), :)
Related for Adios Goodbye tab