Song name
# A B C D E F G H I J K L M N O P Q R S T U V W X Y Z

Rojo - Intimidad tab

INTRO:

E -------3-------------3-------------3-------------3-----|
B -6---6---5---5-6---6---5---5-6---6---5---5-6---6---6---|
G ---5-------5-----5-------5-----5-------5-----5-------5-|
D -3-----3-------3-----3-------3-----3-------3-----3-----|
A -------------------------------------------------------|
E -------------------------------------------------------|



VERSE:
   C		 	       F
E -----------------------------------3-------------3-------|
B -------5-------------5-----------6---6---6-----6---6-----|
G -----5---5---5-----5---5---5---5-------5-----5-------5---|
D ---5-------5-----5-------5---3-------------3-----------3-|
A -3-------------3-----------------------------------------|
E ---------------------------------------------------------|


   Dm			       G
E ---------------------------------------------------------|
B -------6-------------6-------------------3-----3---------|
G -----7---7---------7---7---------5-4-------5-----4-------|
D ---7-------7-----7-------7-------------5-----5-----5---5-|
A -5-----------5-3---------------5---5-5-----5---------5---|
E -----------------------------3---------------------------|

x2



CHORUS:
   C	   G	   F
E -----3-------3-----------|
B -------3-------3-----6---|
G -----------------------5-|
D ---5---------------------|
A -3---------5-------3-----|
E ---------7-------5-------|


   C	   G	      F
E -----3-------3------3-|
B -------3-------3----6-|
G --------------------5-|
D ---5----------------3-|
A -3---------5--------3-|
E ---------7------------|

x2



VERSUS:
Quiero estar en intimidad contigo
Enfocar mi vida una vez más a tu majestad
Dejando atrás el miedo y el dolor
Confiando en tu mirada, dejando arder mi llama por tí.

CHORUS:
//Cómo te deseo//

VERSUS:
F		       A#
Mi deseo es agradar tu corazón
    Gm		       Gm7	   C
Con todo mi afecto, mi vida y mi razón
    F					  A#
Se eleva al cielo el que habita en mi interior
	Gm		      Gm7			 C
Eres el aire que respiro, me alienta y me levanta de mi error


CHORUS:
	    Dm   C     A#
//Como te deseeeeeeeeeeo//

   Dm    	 D	    A#
E ----------------------------------|
B -10/6-6-6-6/8--8/5--5-5/6-6/3-3-3-|
G ----------------------------------|
D ----------------------------------|
A -12/8-8-8-8/10-10/7-7-7/8-8/5-5-5-|
C ----------------------------------|


       Dm   C
//Te deseeeoo//


E ---------------------------------------1-|
B -------1-----------1-----------3---1---3-|
G -----2---2-------2---2-------3---3---3-3-|
D -----------3-----------3---3-----------3-|
A ---3-----------3---------1-------------1-|
E -1-----------1---------------------------|

Quiero estar en intimidad contigo.


God bless you
Dios te bendiga
Dieu vous bénisse!
Deus abençoe você
Gott segne euch
Dio vi benedica!
Tap to rate this tab
# A B C D E F G H I J K L M N O P Q R S T U V W X Y Z