Song name
# A B C D E F G H I J K L M N O P Q R S T U V W X Y Z

Rojo - Eres Todo Poderoso tab

acordes
Bm    G     D     A      C#m      E      B

e -2  e -3  e -2  e -0   e -4   e -0   e -2
B -3  B -3  B -3  B -2   B -5   B -0   B -4
G -4  G -4  G -2  G -2   G -6   G -1   G -4
D -4  D -5  D -0  D -2   D -6   D -2   D -4
A -2  A -5  A --  A -0   A -4   A -2   A -2
E --  E -3  E --  E --   E --   E -0   E --

intro

e ----------------------10p9----10p9---10p9-10p9----10p9----10p9-----|
b ---------------------------10-----10----------10-------10----------|
g --7--9--11--4~-----------------------------------------------------|
d -------------------------------------------------------------------|
a -------------------------------------------------------------------|
E -------------------------------------------------------------------|


e ----------------------10p9----10p9---10p9-10p9----10p9----10p9-------|
b ---------------------------10-----10----------10-------10------10/12~|
g --7--9--11--4~-------------------------------------------------------|
d ---------------------------------------------------------------------|
a ---------------------------------------------------------------------|
E ---------------------------------------------------------------------|


verso
         Bm                 G               D               A
e -----------------|----------------|---------------|----------------|
b ------3---------3|-----3---------3|-----3--------3|-----2---------2|
g ----4---4-----4--|---4---4-----4--|---2--2-----2--|---2---2-----2--|
d ------------4----|-----------5----|-0--------0----|-----------2----|
a --2--------------|----------------|---------------|-0--------------|
E -----------------|-3--------------|---------------|----------------|
antes de entrar al coro:                                 
                                                    |-------0-0-0-0-0|
                                                    |-------2-2-2-2-2|
                                                    |-------2-2-2-2-2|
                                                    |-------2-2-2-2-2|
                                                    |-------0-0-0-0-0|
                                                    |----------------| 


Coro
         Bm         G
tu eres todoo poderosoo
      D             A
eres grande y majestuoso
      Bm           G
eres fueretee invencible
         D           A
y no hay nadie como tuuuu



intro

e ----------------------10p9----10p9---10p9-10p9----10p9----10p9-----|
b ---------------------------10-----10----------10-------10----------|
g --7--9--11--4~-----------------------------------------------------|
d -------------------------------------------------------------------|
a -------------------------------------------------------------------|
E -------------------------------------------------------------------|


e ----------------------10p9----10p9---10p9-10p9----10p9----10p9-------|
b ---------------------------10-----10----------10-------10------10/12~|
g --7--9--11--4~-------------------------------------------------------|
d ---------------------------------------------------------------------|
a ---------------------------------------------------------------------|
E ---------------------------------------------------------------------|

verso

         Bm                 G               D               A
e -----------------|----------------|---------------|----------------|
b ------3---------3|-----3---------3|-----3--------3|-----2---------2|
g ----4---4-----4--|---4---4-----4--|---2--2-----2--|---2---2-----2--|
d ------------4----|-----------5----|-0--------0----|-----------2----|
a --2--------------|----------------|---------------|-0--------------|
E -----------------|-3--------------|---------------|----------------|
antes de entrar al coro:                                 
                                                    |-------0-0-0-0-0|
                                                    |-------2-2-2-2-2|
                                                    |-------2-2-2-2-2|
                                                    |-------2-2-2-2-2|
                                                    |-------0-0-0-0-0|
                                                    |----------------| 

Coro
         Bm         G
tu eres todoo poderosoo
      D             A
eres grande y majestuoso
      Bm           G
eres fueretee invencible
         D           A
y no hay nadie como tuuuu



solo

e --------------------|-------------------|------------------------------------|
b --------------------|-------------------|-8/10-10-10-10-10-10----------------|
g -/11-11-11-9-9-7-7-7|-11-11-11-9-9-7-7-7|---------------------7-9-9-9-9-9-9-9|
d --------------------|-------------------|------------------------------------|
a --------------------|-------------------|------------------------------------|
E --------------------|-------------------|------------------------------------|

e ---10--12---12/17-19---|17-14-----------------------------------------|
b ---------11---------15~|------15--15----17-15-14----------------------|
g -11--11----------------|---------14--16----------16-14----------------|
d -----------------------|-------------------------------16-14/12--12---|
a -----------------------|---------------------------------------14--14~|
E -----------------------|----------------------------------------------|

e ------------------------------2-2-2--2-0-0|
b -----3---3--------3---3-------3-3-3--3-3-3|
g ---4---4---4----4---4---4-----------------|
d ------------------------------------------|
a -2------------2------------2--------------|
E ------------------------------------------|   x2






coro (le suben la nota)

         C#m         A
tu eres todoo poderosoo
      E             B
eres grande y majestuoso
      C#m           A
eres fueretee invencible
         E           B
y no hay nadie como tuuuu



outro

e -----------------------12p11----12p11---12p11-12p11----12p11----12p11-----|
b -----------------------------12-------12------------12-------12-----------|
g --9--11--13--6~-----------------------------------------------------------|
d --------------------------------------------------------------------------|
a --------------------------------------------------------------------------|
E --------------------------------------------------------------------------|



e -----------------------12p11----12p11---12p11-12p11----12p11----12p11------|
b -----------------------------12-------12------------12-------12-------12/14|
g --9--11--13--6~------------------------------------------------------------|
d ---------------------------------------------------------------------------|
a ---------------------------------------------------------------------------|
E ---------------------------------------------------------------------------|


es una vercion mejor q la anterior q puse, espero que les guste
que Dios los bendiga
n78899
Tap to rate this tab
# A B C D E F G H I J K L M N O P Q R S T U V W X Y Z