Song name
# A B C D E F G H I J K L M N O P Q R S T U V W X Y Z

Rojo - Me Quemas tab

Highlighted       Show chord diagrams
Me Quemas-Rojo
Tabbed by: kczmonkey03
e-mail: just leave a comment ; )

For E7, the right fingering is at the bottom (so is C7) =) 

Am                
Encuentro en ti esta sensación
E7                         F  
no me imagino el estar sin ti
C                   E7
y olvidar lo que yo soy

Am
Es mi placer el vivir en ti
E7                       F
Y mi confianza él poder decir
C                  E7    G
que eres todo para mi

coro

C             C7           F       Fm
Me quemas, me llenas me inunda tu mirada
C             C7           F        Fm
me amas, me abrazas, me dices que no hay nada
           Am  G   D 
que nos pueda separar
       F       Fm        C
junto a ti yo quiero estar

Am
Mi corazón late por tu voz
E7                       F
eres mi paz y mi inspiración
C                    E7
oohhh Jesús eres mi amor

Coro

Me quemas, me llenas me inunda tu mirada
me amas, me abrazas me dices que no hay nada
que nos pueda separar
junto a ti yo quiero estar

C   C7      F  Fm ( dos veces)
Nananarana nana
Am G D     F         C  
Oououo junto a ti yo quiero estar

       ::::E7::::
e|------------------------------|
B|-----5------------------------|
G|-----7------------------------|
D|-----6------------------------|
A|-----7------------------------|
E|------------------------------|
           :::C7:::::
e|------0------------------------|
B|------1------------------------|
G|------3------------------------|
D|------2------------------------|
A|------3------------------------|
E|-------------0-----------------|
NOTE: don't play top string
Tap to rate this tab
 
# A B C D E F G H I J K L M N O P Q R S T U V W X Y Z