Song name
# A B C D E F G H I J K L M N O P Q R S T U V W X Y Z

Rokia Traore - Dounia tab

 --- Dounia - Rokia Traoré (guitar solo 3'14'') ---

not really difficult but it needs some practice cause the second part (after all those 
is a little bit fast ... The fingers positions are not absolute, that's just how I like 
play it.
Enjoy !

e |-------------|------------------------------------------------------------|
B |------8-10---|------------------------------------------------------------|
G |--7-9------9-|-9--9-9-8--8-8-7--7-7-6--9p7---7/9-9-9-9-9-9-9-9-9-9-9-9-9--|
D |-------------|----------------------------(9)-----------------------------|
A |-------------|------------------------------------------------------------|
E |-------------|------------------------------------------------------------|

e |-------------------------------|---------------------5-7-7^-10-7------7--------------|
B |------8p10-8p10-10^-8p10p8-----|-----------------5-4-------------8-10---10-8-10^~~~--|
G |--7p9----------------------9---|-----3-4-7-4-3---------------------------------------|
D |-----------------------------9-|-5-7-----------7-------------------------------------|
A |-------------------------------|-----------------------------------------------------|
E |-------------------------------|-----------------------------------------------------|

e |------------------------------------------------------------|
B |-8^-8^-8^-8^-8^-8^------------------------------------------|
G |-------------------7p9-7-7p9-7------------------------------|
D |-------------------------------7p9~-5-7-5~-7-5-7-5----------|
A |---------------------------------------------------5-6-7~~~-|
E |------------------------------------------------------------|
Tap to rate this tab
# A B C D E F G H I J K L M N O P Q R S T U V W X Y Z