Song name
# A B C D E F G H I J K L M N O P Q R S T U V W X Y Z

Roky Erickson - Anthem I Promise tab

Help us improve GuitareTab! Take a short survey!
Real good Acoustic song from the one and only Roky Erickson. Tabbed by Dex Wayne.

------
Intro:
------

Slide from C# to D# with that "Roky-rythm-strum"
------
Chords (I'm not sure of what he's singing, but it's still good):
------
Refrain:

C#/D# (Slide like in the intro)
I promise, I promise
   B                  C#
My dreams and blue as to you from
C#/D#
I promise, I promise
   B                  C#
My dreams and blue as to you from

F#                                 D#
With you, Got to show who's me and why
                B
Luciefer and the mother of witches
                 C#
In marriage the unite

And the chords repeat thereafter.

Now to the Solo

E--------2-1--------------|
B---2--------4-2-4--------|
G-/3---/3-----------------|
D-------------------------|
A-------------------------|
E-------------------------|

E-------------------------------|
B---2---4-4-2-2-0-0----4-4--2-2-|
G--3-3--------------------------|
D-------------------------------|
A-------------------------------|
E-------------------------------|

When you get the basics, fool around with it a little and you'll have no problems with 
song. Hope this tab helped you a little. Have fun playing.

/Dex
Related for Anthem I Promise tab