Song name
# A B C D E F G H I J K L M N O P Q R S T U V W X Y Z

Roky Erickson - Right Track Now tab

-------------------------------------------------------------------------------
			     Right Track Now - Roky Erickson
-------------------------------------------------------------------------------
Tabbed by:chris
song written by:Powell st. john

Tuning:standard

 a somewhat simplified version...
  
  
   C			 Em               Am		
e|-0-----------0-----0---0---------0------0---------0------------------------|
B|----------------1------------------------------1-----1---------------------|
G|---------0-----------------0--0-----0-------2------------------------------|
D|-----2----------------------------------2----------------------------------|
A|-3---------------------2---------------------------------------------------|
E|---------------------------------------------------------------------------|
 
   Am               Dm
e|-0---------0------1---------1------1---------1-----------------------------|
B|--------1-----1----------3-----3----------3-----3--------------------------|
G|-----2----------------2----------------2-----------------------------------|
D|-2----------------0----------------0---------------------------------------|
A|---------------------------------------------------------------------------|
E|---------------------------------------------------------------------------|

    G
e|-3---------3------3--------3------------------------------------------------|
B|--------3-----3---------3-----3---------------------------------------------|
G|-----0---------------0------------------------------------------------------|
D|-0----------------0---------------------------------------------------------|
A|----------------------------------------------------------------------------|
E|----------------------------------------------------------------------------|


===============================================================================
Tap to rate this tab
# A B C D E F G H I J K L M N O P Q R S T U V W X Y Z