Song name
# A B C D E F G H I J K L M N O P Q R S T U V W X Y Z

Rol Model - Popeye tab

e:--------------------------------------------------------------------------------|
b:--------------------------------------------------------------------------------|
g:--------------------------------------------------------------------------------|
D:-10-9-10---------------10-9-10-/14-12-10-12-------12-10-------------------------|
A:-------------10-8-7-10----------------------10-10-------14-12-10-10-------------|
E:---------8-8--------------------------------------------------------------------|

e:--------------------------------------------------------------------------------|
b:--------------------------------------------------------------------------------|
g:--------------------------------------------------------------------------------|
D:-------10-----------------------------------------------------------------------|
A:-12-14----14-12-10-12-10-8-7-8-7-----------------5---7----8-7-8-7---------------|
E:---------------------------------10-8-10-8-7-5-7---8---10---------8-8-----------|

e:--------------------------------------------------------------------------------|
b:--------------------------------------------------------------------------------|
g:--------------------------------------------------------------------------------|
D:-10-9-10---------------10-9-10--12-10-12-------12-10----------------------------|
A:-------------10-8-7-10-------------------10-10-------14-12-10-10----------------|
E:---------8-8--------------------------------------------------------------------|

e:--------------------------------------------------------------------------------|
b:--------------------------------------------------------------------------------|
g:--------------------------------------------------------------------------------|
D:-------10-----------------------------------------------------------------------|
A:-12-14----14-12-10-12-10-8-7-8-7------------------------8-7----7----------------|
E:---------------------------------10-8-10-8-7-5-7-7-8-10-----10---8-8------------|
Tap to rate this tab
# A B C D E F G H I J K L M N O P Q R S T U V W X Y Z