Song name
# A B C D E F G H I J K L M N O P Q R S T U V W X Y Z

Roland Alphonso - El Torro tab

ROLAND ALPHONSO - EL TORRO

An amazing reggae tune, and incredibly simple to play. I couldn't find any
tabs out there so I decided to transcribe it myself. Enjoy!

INTRO
E|--1--3--1----1--3--1----1--3--1----1--3--1--|
B|--1--5--3----3--5--1----1--5--3----3--5--1--|
G|--2--5--3----3--5--2----2--5--3----3--5--2--|
D|--3--5--3----3--5--3----3--5--3----3--5--3--|
A|--3--3--1----1--3--3----3--3--1----1--3--3--|
E|--1----------------1----1----------------1--|


E|------3-3-3-3-1-1-1-1-1-1-3-3-1-1-1-1-3-3-3-3-1-1-1-1-1-1-3-3--|
B|------5-5-5-5-3-3-3-3-1-1-5-5-2-2-2-2-5-5-5-5-3-3-3-3-1-1-5-5--|
G|------5-5-5-5-3-3-3-3-2-2-5-5-3-3-3-3-5-5-5-5-3-3-3-3-2-2-5-5--|
D|------5-5-5-5-3-3-3-3-3-3-5-5-3-3-3-3-5-5-5-5-3-3-3-3-3-3-5-5--|
A|------3-3-3-3-1-1-1-1-3-3-3-3-3-3-3-3-3-3-3-3-1-1-1-1-3-3-3-3--|
E|----------------------1-1-----1-1-1-1-----------------1-1------|
  "You sheltered me..."

                      X2
E|--1-1-1-1-3-3-3-3--|
B|--3-3-3-3-5-5-5-5--|
G|--3-3-3-3-5-5-5-5--|
D|--3-3-3-3-5-5-5-5--|
A|--1-1-1-1-3-3-3-3--|
E|-------------------|
  "The finest years..."

                      X3
E|--1-1-1-1-3-3-3-3--|
B|--1-1-3-3-5-5-5-5--|
G|--2-2-3-3-5-5-5-5--|
D|--3-3-3-3-5-5-5-5--|
A|--3-3-1-1-3-3-3-3--|
E|--1-1--------------|
  "I would give anything..."


E|--1-1-1-1-1-1-1-1--|
B|--3-3-3-3-1-1-1-1--|
G|--3-3-3-3-2-2-2-2--|
D|--3-3-3-3-3-3-3-3--|
A|--1-1-1-1-3-3-3-3--|
E|----------1-1-1-1--|
  "Just to have you..."

                                      X2
E|--1-1-1-1-1-1-1-1-1-1-1-1-3-3-3-3--|
B|--3-3-3-3-3-3-3-3-3-3-3-3-5-5-5-5--|
G|--3-3-3-3-3-3-3-3-3-3-3-3-5-5-5-5--|
D|--3-3-3-3-3-3-3-3-3-3-3-3-5-5-5-5--|
A|--1-1-1-1-1-1-1-1-1-1-1-1-3-3-3-3--|
E|-----------------------------------|
  "Is there someone..."

                      X3
E|--1-1-1-1-3-3-3-3--|
B|--1-1-3-3-5-5-5-5--|
G|--2-2-3-3-5-5-5-5--|
D|--3-3-3-3-5-5-5-5--|
A|--3-3-1-1-3-3-3-3--|
E|--1-1--------------|
  "I would give anything..."

                      X2
E|--1-1-1-1-1-1-1-1--|
B|--3-3-3-3-1-1-1-1--|
G|--3-3-3-3-2-2-2-2--|
D|--3-3-3-3-3-3-3-3--|
A|--1-1-1-1-3-3-3-3--|
E|----------1-1-1-1--|
  "Just to have you..."

And there is is!

||SmackSmash||

http://en.wikipedia.org/wiki/Roland_Alphonso
Tap to rate this tab
# A B C D E F G H I J K L M N O P Q R S T U V W X Y Z