Song name
# A B C D E F G H I J K L M N O P Q R S T U V W X Y Z

Roland Dyens - Tango En Skai tab

Tango En Skai-Roland Dyens (E A D G B E)
 4/4
|--------------------------------------------------||--1-----0------------------1----0--3--2-----1|
|--------------------------------------------------||--1--1--1--1---------------1----1--1--1-----1|
|*------------------------------------------------*||*-2--2--2--2---------------2----2--2--2-----2|
|*------------------------------------------------*||*----2-----2------------------2----------2---|
|-<12>-------<12>------<12>-------------<12>-------||------------------------0----------0---------|
|-------<12>-------<12>--------<12>-----------<12>-||--------------0h1h2h3h4----------------------|

|-1----------0------------0h1h2h|h3-------------------------0-------0-------9-12--|
|-2--3--2--3-0----------0-------|---3--3--3---------------2-------2------11-------|
|-2--2--2--2-2----2--1--1-------|---3--3--3-------------3-----2h3-----12----------|
|-----------------0--0--0-------|---2--2--2---------2h5---------------------------|
|-2---------------------2-------|-------------0h1h4-------------------------------|
|--------------0-----0----------|-----------0-------------------------------------|
 
|-12-10-----12---10--12--10---------|-13-13-13-13-10-10-10-10-7-7-7-7-4-4-4-4-0-0-0-0------------|
|----10-----10---10--10--10--10-10--|----------12----------9--------6-------3-------1------------|
|----10-----10---10--10--10--10-10--|----------13----------10-------7-------4-------0-1-2-4-2---1|
|-0-------0----------0--------------|----------12----------9--------6-------3-------1-0-0-0-0---0|
|-------0------0--------------------|------------------------------------------------------------|
|-----------------------------------|-------------------------------------------------0-2-4---0--|

|-----------------------------------|
|-5--3---1--5----------0--1--0------|
|-5--4---2--5--------2----2------2--|
|--------------------2----2---------|
|-0---------0-----0-----------------|
|------0-------0----------3----3----|
 ________________________________________________________________________________
/ 1
|-----------------------------------|-0------------------------0<12>-------------||
|-1-----0----------1---0------------|-0----------------------1-------1<13>-------||
|-2--2--2--2-------2------2--1---2--|-1--------------------1---------------1<13>*||
|-1--1--1--1-------0----------------|-2--3-2-0-2-0-------0----------------------*||
|-----------------------------------|-2------------3p2-1-------------------------||
|-2----------3-2-1---1----1----1----|-0------------------------------------------||
 _______________________________________________________
/ 2                               2/4
|-------------------------------|----------------------||
|-1-----0--------1---0-------0--|----------------------||
|-2--2--2--2-----1------2-1-----|-2--------------------||
|-1--1--1--1-----0--------------|-2--------------------||
|-------------------------------|-0-------<5>----------||
|-2-----2----1-0---0----0-------|----<5>---------------||

Coda $
|-3---------------5---3---------5--|
|-3---------------3---3--3--4---4--|
|-4--4--4--4--x---4---4--4--4---4--|
|-3--3--3--3--x----------5--5------|
|-5--5--5--5--x--------------------|
|-3-------------3---3----3----3----|

Note:
The x's mean hit the guitar with your thumb in the bridge

|-0-----------------------0------------7--|-10----7h8p7-5h7p5-3h5p3-1h3p1-0----|
|-------------------0---0--------8---8----|----10------------------------------|
|-------------0---0---0--------9---9------|------------------------------------|
|-------2---2---2-----------10------------|------------------------------------|
|-----3---3-------------------------------|------------------------------------|
|---3-------------------------------------|----------------------------------0-|
    p i m p i m p i m p i m p  i m p i m

|------0--1--0------0--4h5------------------------|--------------------13-12---------------|
|---3--3--3--3---3--1------4h5--------------------|-------1-0-------0----------------------|
|---3--3--3--3---3--4----------4h5-1h2------------|-----2-----2-1h2-----------10-8---------|
|---3------------3---------------------1h2--------|-1-4-----------------------------3-2----|
|-0-------0----0----0----------------------2h3-0--|----------------------------------------|
|-------------------------------------------------|--------------------------------------1/|

|-3---------------5---3---------5--|-0-----------------------0------------7--|
|-3---------------3---3--3--4---4--|-------------------0---0--------8---8----|
|-4--4--4--4--x---4---4--4--4---4--|-------------0---0---0--------9---9------|
|-3--3--3--3--x----------5--5------|-------2---2---2-----------10------------|
|-5--5--5--5--x--------------------|-----3---3-------------------------------|
|/3-------------3---3----3----3----|---3-------------------------------------|
                                       p i m p i m p i m p i m p  i m p i m

|-10----7h8p7-5h7p5-3h5p3-1h3p1-0----|------0--1--0------0--4h5------------------------| 2nd time
|----10------------------------------|---3--3--3--3---3--1------4h5--------------------| D.S.
|------------------------------------|---3--3--3--3---3--4----------4h5-1h2------------| Al
|------------------------------------|---3------------3---------------------1h2--------| Coda
|------------------------------------|-0-------0----0----0----------------------2h3-0--| (@)
|----------------------------------0-|-------------------------------------------------|

|------------------------------------|----8-------8-------8--------9------9---|
|-------1-0---------------10(22)-----|----9-------9-------9--------10-----10--|
|-----2-----2-1h4-2/9(21)------------|----9-------9-------9--------10-----10--|
|-1-4--------------------------------|----10------10------10-------11-----11--|
|------------------------------------|-0--------0-------0--------0------------|
|---------------------------------0--|-------0-------0--------0--------0------|

|----8-------8-------8--------8-----0h1h2h-|h3-------------------------0-------0-------9-12--|
|----8-------8-------8--------8------------|---3--3--3---------------2-------2------11-------|
|----9-------9-------9--------9------------|---3--3--3-------------3-----2h3-----12----------|
|----10------10------10-------10-----------|---2--2--2---------2h5---------------------------|
|-0--------0-------0--------0--------------|-------------0h1h4-------------------------------|
|-------0-------0--------0--------0--------|-----------0-------------------------------------|

|-12-10-----12---10--12--10---------|-13-13-13-13-10-10-10-10-7-7-7-7-4-4-4-4-0-0-0-0------------|
|----10-----10---10--10--10--10-10--|----------12----------9--------6-------3-------1------------|
|----10-----10---10--10--10--10-10--|----------13----------10-------7-------4-------0-1-2-4-2---1|
|-0-------0----------0--------------|----------12----------9--------6-------3-------1-0-0-0-0---0|
|-------0------0--------------------|------------------------------------------------------------|
|-----------------------------------|-------------------------------------------------0-2-4---0--|

|-----------------------------------|-------------------------------|----------------------|D.S.
|-5--3---1--5----------0--1--0------|-1-----0--------1---0-------0--|----------------------| Al
|-5--4---2--5--------2----2------2--|-2--2--2--2-----1------2-1-----|-2--------------------|Coda
|--------------------2----2---------|-1--1--1--1-----0--------------|-2--------------------| ($)
|-0---------0-----0-----------------|-------------------------------|-0-------<5>----------|
|------0-------0----------3----3----|-2-----2----1-0---0----0-------|----<5>---------------|

@
|-------------------16--17--*|
|-------1-0-----------------*|
|-----2-----2-1h4-2/16--17--*|
|-1-4-----------------------*|
|-----------------------0---*|
|-------------------0-------*|

Tap to rate this tab
# A B C D E F G H I J K L M N O P Q R S T U V W X Y Z