Song name
# A B C D E F G H I J K L M N O P Q R S T U V W X Y Z

Rollerball - Seasoar tab

seasoar


rollerball

TRANSCRIBED BY RUDY GUZMAN

guzman_84@hotmail.com




     pm......       .......       .......       .......                                           
e:--------------------------------------------------------|
B:--------------------------------------------------------|
G:--------------------------------------------------------|
D:--------------------------------------------------------|
A:-4----------7--4----------7--4----------7--4----------7-|
E:-2--0-2-0-2-5--2--0-2-0-2-5--2--0-2-0-2-5--2--0-2-0-2-5-|


verse
     pm......       .......       .......       .......                                           
e:--------------------------------------------------------|
B:--------------------------------------------------------|
G:--------------------------------------------------------|
D:--------------------------------------------------------|
A:-4----------7--4----------7--4----------7--4----------7-|
E:-2--0-2-0-2-5--2--0-2-0-2-5--2--0-2-0-2-5--2--0-2-0-2-5-|

e:--------------------------|
B:--------------------------|
G:--------------------------|
D:--------------------------|
A:-2------------------------|
E:-0--0-000-000-000-000-000-|

     pm......       .......       .......       .......                                           
e:--------------------------------------------------------|
B:--------------------------------------------------------|
G:--------------------------------------------------------|
D:--------------------------------------------------------|
A:-4----------7--4----------7--4----------7--4----------7-|
E:-2--0-2-0-2-5--2--0-2-0-2-5--2--0-2-0-2-5--2--0-2-0-2-5-|

e:--------------------------|
B:--------------------------|
G:--------------------------|
D:--------------------------|
A:-2------------------------|
E:-0--0-000-000-000-000-000-|

     pm......       .......       .......       .......                                           
e:--------------------------------------------------------|
B:--------------------------------------------------------|
G:--------------------------------------------------------|
D:--------------------------------------------------------|
A:-4----------7--4----------7--4----------7--4----------7-|
E:-2--0-2-0-2-5--2--0-2-0-2-5--2--0-2-0-2-5--2--0-2-0-2-5-|


e:------------2----------------------------------------------------------------------|
B:-2--------3---3-----10-10---------17-----------------------------------------------|
G:-2--------2-----2/9-9--9------16b----16-14----16-14--------14----16b-16~~-16-14~~~-|
D:-2--4--5--0--------------------------------16--------14h16----16-------------------|
A:-0--4--5---------------------------------------------------------------------------|
E:----2--3---------------------------------------------------------------------------|

e:------------2--------------------------------------------------------------------------|
B:-2--------3---3-----10-10---------17---------------------------------------------------|
G:-2--------2-----2/9-9--9------16b----16-14----16-14--12h14-12---7bp5---7-5-------------|
D:-2--4--5--0--------------------------------16------------------------7-----7-5-7~~~----|
A:-0--4--5-------------------------------------------------------------------------------|
E:----2--3----------------------------------------------------------------------------12/|

     pm......       .......       .......       .......                                           
e:--------------------------------------------------------|
B:--------------------------------------------------------|
G:--------------------------------------------------------|
D:--------------------------------------------------------|
A:-4----------7--4----------7--4----------7--4----------7-|
E:-2--0-2-0-2-5--2--0-2-0-2-5--2--0-2-0-2-5--2--0-2-0-2-5-|

verse
     pm......       .......       .......       .......                                           
e:--------------------------------------------------------|
B:--------------------------------------------------------|
G:--------------------------------------------------------|
D:--------------------------------------------------------|
A:-4----------7--4----------7--4----------7--4----------7-|
E:-2--0-2-0-2-5--2--0-2-0-2-5--2--0-2-0-2-5--2--0-2-0-2-5-|

e:--------------------------|
B:--------------------------|
G:--------------------------|
D:--------------------------|
A:-2------------------------|
E:-0--0-000-000-000-000-000-|

     pm......       .......       .......       .......                                           
e:--------------------------------------------------------|
B:--------------------------------------------------------|
G:--------------------------------------------------------|
D:--------------------------------------------------------|
A:-4----------7--4----------7--4----------7--4----------7-|
E:-2--0-2-0-2-5--2--0-2-0-2-5--2--0-2-0-2-5--2--0-2-0-2-5-|

e:--------------------------|
B:--------------------------|
G:--------------------------|
D:--------------------------|
A:-2------------------------|
E:-0--0-000-000-000-000-000-|

     pm......       .......       .......       .......                                           
e:--------------------------------------------------------|
B:--------------------------------------------------------|
G:--------------------------------------------------------|
D:--------------------------------------------------------|
A:-4----------7--4----------7--4----------7--4----------7-|
E:-2--0-2-0-2-5--2--0-2-0-2-5--2--0-2-0-2-5--2--0-2-0-2-5-|


e:------------2----------------------------------------------------------------------|
B:-2--------3---3-----10-10---------17-----------------------------------------------|
G:-2--------2-----2/9-9--9------16b----16-14----16-14--------14----16b-16~~-16-14~~~-|
D:-2--4--5--0--------------------------------16--------14h16----16-------------------|
A:-0--4--5---------------------------------------------------------------------------|
E:----2--3---------------------------------------------------------------------------|

e:------------2--------------------------------------------------------------------------|
B:-2--------3---3-----10-10---------17---------------------------------------------------|
G:-2--------2-----2/9-9--9------16b----16-14----16-14--12h14-12---7bp5---7-5-------------|
D:-2--4--5--0--------------------------------16------------------------7-----7-5-7~~~----|
A:-0--4--5-------------------------------------------------------------------------------|
E:----2--3----------------------------------------------------------------------------12/|

         -------------  
e:------/-------------------------------------------------------3-----------|
B:-----/-----------------------------------3---3------------6-----6---------|
G:-5bf/--5-5-5-5-5-5-5-5p3---3-------------3---3-5p3---3-5b---5-------------|
D:-------------------------5---5----3-5-5----5-------5----------------------|
A:--------------------------------5-----------------------------------------|
E:--------------------------------------------------------------------------|

e:-----17-------------------17-------------------17-------------------------------------|
B:-17b----20bp17-17-----17b----20bp17-17-17b-17b----------------------------------------|
G:-19b--------------19--19b--------------19b-19b----19-17------17h19p17----17h19p17-----|
D:--------------------------------------------------------19~~----------19----------19~-|
A:--------------------------------------------------------------------------------------|
E:--------------------------------------------------------------------------------------|

e:------------------2----2-----2-2--5-2h5p2---2-5-2h5p2---2-5-2h5p2-0h2p0h2p0h2p0h2p0-2/5|
B:-4b--4--4-4-2-----2----2-2-5--------------5-----------5--------------------------------|
G:-4b--4--4-4-2--4b---4b-----------------------------------------------------------------|
D:---------------------------------------------------------------------------------------|
A:---------------------------------------------------------------------------------------|
E:---------------------------------------------------------------------------------------|

e:---------------------------------------------------------------------------------------|
B:-------------------------17-------------------------14h17p16-------------14-15-14-15-14|
G:-------14---------14-16b----16p14----14----14~--16b----------16-14-16-14-14-14-14-14-14|
D:-14h16-----14h16------------------16----16---------------------------------------------|
A:---------------------------------------------------------------------------------------|
E:---------------------------------------------------------------------------------------|

                                                                               pick slide
e:---------------------------------------------17-20-20-20b-20b-20bp17----17~~-----------|
B:--------------------17--------17-19~~--17-19-------------------------20------x\--------|
G:-14--------19-18-------18----------------------------------------------------x\--------|
D:----14~~---------19-------19-------------------------------------------------x\--------|
A:---------------------------------------------------------------------------------------|
E:---------------------------------------------------------------------------------------|


e:---------------------------------------------------------|
B:-2--------3--3-------10-10---2----------3--3-------10-10-|
G:-2--------2--2---2/9-9--9----2----------2--2--2/9--9--9--|
D:-2--4--5--0--0---------------2--4---5---0--0-------------|
A:-0--4--5---------------------0--4---5--------------------|
E:----2--3------------------------2---3--------------------|

e:------------2--------------------------------------------------------------------------|
B:-2--------3---3-----10-10---------17---------------------------------------------------|
G:-2--------2-----2/9-9--9------16b----16-14----16-14--------14----16b-16~~-16-14----14~-|
D:-2--4--5--0--------------------------------16--------14h16----16----------------16-----|
A:-0--4--5-------------------------------------------------------------------------------|
E:----2--3-------------------------------------------------------------------------------|

e:------------2-------------------------------------------------------------------------|
B:-2--------3---3-----10-10---------17--------------------------------------------------|
G:-2--------2-----2/9-9--9------16b----16-14----16-14--12h14-12h14----------------------|
D:-2--4--5--0--------------------------------16--------------------10h12-10-------12-10-|
A:-0--4--5------------------------------------------------------------------12-10-------|
E:----2--3------------------------------------------------------------------------------|

e:------------------------------------------------------------|
B:------------------------------------------------------------|
G:------------------------------------------------------------|
D:------------------------------------------------------------|
A:-12-10-12~~~------------------------------------------------|
E:------------------------------------------------------------|



hillo son mex

20/04/10
Tap to rate this tab
# A B C D E F G H I J K L M N O P Q R S T U V W X Y Z