Song name
# A B C D E F G H I J K L M N O P Q R S T U V W X Y Z

Rollerball - Jonathan E tab

Jonathan E
R O L L E R B A L L
Tabbed By Aaron Bridgeman (rokken@sicness.net)

http://bogans.arecool.net

Heard it on the J's.
LONG LIVE STONER ROCK!

KEY:
h = hammer-on
~ = vibrato

INTRO:
e|------------------------|
B|------------------------|
G|------------------------|
D|--------5----------5----|
A|-7--5h7---7----5h7---7--|
E|------------------------|

MAIN FIGURE:
e|-----------------------|                 |----------------|
B|-----------------------|    sometimes    |----------------|
G|-----------------------|    moves to     |----------------|
D|-----------------------|    this...      |----------------|
A|-----------5---------7-|                 |-----------5~~~-|
E|-0---0h5h7-----0h5h7---|                 |-0---0h5h7------|

OTHER FIGURE:
e|---------------------------------------------------|
B|---------------------------------------------------|
G|---------------------------------------------------|
D|---------------------------------------------------|
A|-7---7--7-7-7--8---8--8-8-8-----------5---------5--|
E|-5---5--5-5-5--6---6--6-6-6-0---0h5h7-----0h5h7----|

OTHER FIGURE PT. 2:
e|--------------------------------------------------------|
B|--------------------------------------------------------|
G|--------------------------------------------------------|
D|-----------------------------7---7--7-7-7---------------|
A|-7---7--7-7-7--8---8--8-8-8--5---5--5-5-5--7---7--7-7-7-|
E|-5---5--5-5-5--6---6--6-6-6----------------5---5--5-5-5-|

Yeah!
Tap to rate this tab
 
# A B C D E F G H I J K L M N O P Q R S T U V W X Y Z