Song name
# A B C D E F G H I J K L M N O P Q R S T U V W X Y Z

Rolling Stones - Down The Road A Piece tab

me puse a buscar este tema y no estaba por ningun lado, no se puede creer xD asi q saque 
intro, despues subo el resto cuando me den las bolas de seguir sacandolo

intro:

e|-----5---------5---------5-------7---------------5------5__---5.-5.-7b----|
B|---5---------5---------5---8-7-5---9-8-7-------5---8-7--5__---5.-5.-------|
G|5h6-------5h6-------5h6------------------9--5h6---------6__-----------7-5-|
D|--------------------------------------------------------------------------|
A|--------------------------------------------------------------------------|
E|--------------------------------------------------------------------------|

e|---------------------------------------------------------------------------|
B|---------------------------------------------------------------------------|
G|---5-5-----5-5-----5-7b7r-5-------5-7b7r-5---5----5-7b7r-5---5---5---5-----|
D|-7b^^^---7b^^^---7----------7-5------------7---7-----------7---7---7--7-5--|
A|--------------------------------7----------------------------------------7-|
E|---------------------------------------------------------------------------|
Tap to rate this tab
# A B C D E F G H I J K L M N O P Q R S T U V W X Y Z