Song name
# A B C D E F G H I J K L M N O P Q R S T U V W X Y Z

Rolling Stones - Around And Around tab

The Rolling Stones
Song: Around And Around
Album: 12X5
Year: 1964
Guitarists: Keith Richards, Brian Jones
Tuning: Standard

This is a really cool song. It's a great early cover. Keith once again proves he is the master
of mimicing Chuck Berry. He's got the guy down to a tee. The most important thing is to listen
to the recording to hear the timings of each part so it will make more sense. I've 
loved
this song. Especially watching old footage of them doing it. Enjoy.


Opening Riff A

--------------------------------------------------|
--------------------------------------------------|
-9-----9--9--9----9-----9--9--9---9---------------|
-9h11--11-11-11---9h11--11-11-11--9---------------|
--------------------------------------------------|
--------------------------------------------------|


Opening Riff B

-5--5--5--5--5--5--5--5--5------------------------|
-5--5--5--5--5--5--5--5--5------------------------|
--------------------------------------------------|
--------------------------------------------------|
--------------------------------------------------|
--------------------------------------------------|


Verse Fig. 1

-------------------------------------------------------------------------------------------------|
-------------------------------------------------------------------------------------------------|
-------------------------------------------------------------------------------------------------|
--------------------7--7--7h9--9--7----------------------9--9--9h11--11--9-----------------------|
-7--7--7h9--9--7----5--5--5----5--5---7--7--7h9--9--7----7--7--7-----7---7----7--7--7h9--9--7----|
-5--5--5----5--5----------------------5--5--5----5--5-------------------------5--5--5----5--5----|
  < -- 2x -- >

Verse Riff

------5--3--------5--3-----------10--8----------5--3------------10--8---------5--3-------|
-5h7--------5h7---------10h12-----------5h7----------12h14------------5h7----------------|
-----------------------------------------------------------------------------------------|
-----------------------------------------------------------------------------------------|
-----------------------------------------------------------------------------------------|
-----------------------------------------------------------------------------------------|


Chorus

-------------------------------------------------------------------------------------|
-------------------------------------------------------------------------------------|
-------------------------------------------------------------------------------------|
---------------7-7-7-7-9-7-----------------9-9-9-9-11-9------------------------------|
-7-7-7-7-9-7---5-5-5-5-5-5---7-7-7-7-9-7---7-7-7-7-7--7----7-7-7-7-9-7---------------|
-5-5-5-5-5-5-----------------5-5-5-5-5-5-------------------5-5-5-5-5-5---------------|
< -- 4x -- >  < -- 2x -- >  < -- 2x -- >   < -- 2x -- >   < -- 2x -- >


Solo 1

-5----------5----------------------5----------5--------------------------------------|
-5----------5------5---------5-----5----------5-----14-14-12--14-14-12-12-12-12-12---|
----7--5h6---------5---------5--------7--5h6--------14-14-12--14-14-12-12-12-12-12---|
----------------------7--5h7------------------------14-14-12--14-14-12-12-12-12-12---|
-------------------------------------------------------------------------------------|
-------------------------------------------------------------------------------------|
 < -- 2x -- >                      < -- 3x -- >     <----------- 2x ------------>

-------------------------------------------------------------------------------------|
-19-19-17--19-19-17-17-17-17-17---14-14-12--14-14-12-12-12-12------------------------|
-19-19-17--19-19-17-17-17-17-17---14-14-12--14-14-12-12-12-12------------------------|
-19-19-17--19-19-17-17-17-17-17---14-14-12--14-14-12-12-12-12------------------------|
-------------------------------------------------------------------------------------|
-------------------------------------------------------------------------------------|

-------------------------------------------------------------------------------------|
-21-21-19--21-21-19-19-19-19-19---14-14--12--14--------------------------------------|
-21-21-19--21-21-19-19-19-19-19---14-14--12--14--------------------------------------|
-21-21-19--21-21-19-19-19-19-19---14-14--12--14--------------------------------------|
-------------------------------------------------------------------------------------|
-------------------------------------------------------------------------------------|

Solo 2

-5---------5-----10------------10----5---------5----12------------12----5----------5---|
-5---------5-----10------------10----5---------5----12------------12----5----------5---|
----7--5h6----------12--10h11----------7--5h6-----------14--12h13----------7--5h6------|
---------------------------------------------------------------------------------------|
---------------------------------------------------------------------------------------|
---------------------------------------------------------------------------------------|
< -- 2x -- >

-5--------5----5---------5----10------------10----5---------5----12-----------12-------|
-5--7--5--5----5---------5----10------------10----5---------5----12-----------12-------|
------------------7--5h6----------12--10h11----------7--5h6---------14--12h13----------|
---------------------------------------------------------------------------------------|
---------------------------------------------------------------------------------------|
---------------------------------------------------------------------------------------|

-5----------5---------------5-----5---------5-------12-----12--12--12----------------|
-5----------5-----5---------5-----5---------5-------12h14--14--14--14----------------|
----7--5h6--------5---7--5-----------7--5h6------------------------------------------|
-------------------------------------------------------------------------------------|
-------------------------------------------------------------------------------------|
-------------------------------------------------------------------------------------|
 < -- 3x -- >                     < -- 3x -- >      < ----- 8x ----- >

-10------------10-----5-------5------12-----------12----5----------5-------------|
-10------------10-----5-------5------12-----------12----5----------5-------------|
-----12--10h12-----------7--5------------14--12h3----------7--5h6----------------|
---------------------------------------------------------------------------------|
---------------------------------------------------------------------------------|
---------------------------------------------------------------------------------|

-5-5-3--5--3-----5--3--------------------------------------------|
-5-5-3--------5--5--3--------------------------------------------|
-----------------------------------------------------------------|
-----------------------------------------------------------------|
-----------------------------------------------------------------|
-----------------------------------------------------------------|
Tap to rate this tab
 
# A B C D E F G H I J K L M N O P Q R S T U V W X Y Z