Song name
# A B C D E F G H I J K L M N O P Q R S T U V W X Y Z

Rolling Stones - Heartbreaker tab

Song: Doo Doo Doo Doo Doo (Heartbreaker)(solo)
Artist: The Rolling Stones
Album: Goats Head Soup


Solo: (slight distortion)        
e|--------------------------------------------|
B|---9b11---(11)---9b11r9s7---(7)-------------|
G|--------------------------------------------|
D|--------------------------------------------|
A|--------------------------------------------|
E|--------------------------------------------|


e|--------------------------------------------|
B|---6h7s9--7--6--4--6s7--6--4s6--4s2s4-------|
G|--------------------------------------------|
D|--------------------------------------------|
A|--------------------------------------------|
E|--------------------------------------------|


e|---------------|-----------13--14--14s16--14--13--------------|
B|---7--9--9s11--|---14--16-------------------------14--14s16---|
G|---------------|----------------------------------------------|
D|---------------|----------------------------------------------|
A|---------------|----------------------------------------------|
E|---------------|----------------------------------------------|


e|--------------------------------------------------------------|
B|---14b15--11--11b12--9--7b8--4--4--2-----2----2--4--7--4--7\--|
G|--------------------------------------3-----------------------|
D|--------------------------------------------------------------|
A|--------------------------------------------------------------|
E|--------------------------------------------------------------|

There might be a few more slides in there that what I put down,
but it sounds pretty accurate.  Enjoy- Terry
Tap to rate this tab
# A B C D E F G H I J K L M N O P Q R S T U V W X Y Z