Song name
# A B C D E F G H I J K L M N O P Q R S T U V W X Y Z

Rolling Stones - If You Cant Rock Me tab

ROLLING STONES - IF YOU CAN'T ROCK ME
(Jagger/Richards)

Tabber: Mord_Wraith
E-mail: thundastruck@hotmail.com
Date: 12/2/2004

Tuning (low to high): DGDGBD

Chords used:

D        x7777x
C        x5555x
F/C      x5756x
G        x00000

Intro:

     D     C G
D|-----------0---|
B|---7-7---5-0---|
G|---7-7---5-0---| play 4 times
D|---7-7---5-0---|
G|---7-7---5-0---|
D|---------------|

Verse:

         F/C
D|------------------------------|
B|---5---6-6--5---5-5--6-6--5---|
G|---5---5-5--5---5-5--5-5--5---|
D|---5---7-7--5---5-5--7-7--5---|
G|---5---5-5--5---5-5--5-5--5---|
D|------------------------------|
  The band's on stage . . .

D|-----------0-----------0---|
B|---7-7---5-0---7-7---5-0---|
G|---7-7---5-0---7-7---5-0---|
D|---7-7---5-0---7-7---5-0---|
G|---7-7---5-0---7-7---5-0---|
D|---------------------------|
  Oh yeah!

G                         C                D
You lovely ladies in your leather and lace
G                       C             D
A thousand lips I would love to taste
G                         C
I've got one heart and it hurts like hell

Chorus:

Same as intro

Break:

D|-------------------5-5---|
B|---2/3-0-5---------3-3---|
G|---3/4-0-5-3/4-0---------| play 4 times
D|---------5-2/3-0---------|
G|-------------------------|
D|-------------------------|

---

Very straight forward, I don't think I have to explain anything.
Tap to rate this tab
# A B C D E F G H I J K L M N O P Q R S T U V W X Y Z