Guitaretab - guitar tabs
Song name
# A B C D E F G H I J K L M N O P Q R S T U V W X Y Z

Rolling Stones - Jumping Jack Flash tab

Artist: The Rolling Stones
Song: Jumping Jack Flash
Tunning: Standard


 - The Recording of this song is in the key of Bb, not 
   the key of B like the rest of the tabs on the site have it in


Intro:

e--6---6---6-6---6---6--4---4-4--|
B--6---6---6-6---8---8--4---4-4--|
G--7---7---7-7---8---8--5---5-5--|
D--8---8---8-8---8---8--6---6-6--|
A--8---8---8-8---6---6--6---6-6--|
E--6---6---6-6----------4---4-4--|

                                                  
e--6-----6-----6---6-----4-----4----|
B--6-----6-----6---8-----4-----4----|
G--7-7-7-7-7-7-7-7-8-8-8-5-5-5-5-5--| x2
D--8-8-8-8-8-8-8-8-8-8-8-6-6-6-6-6--|
A--8-8-8-8-8-8-8-8-6-6-6-6-6-6-6-6--|
E--6-6-6-6-6-6-6-6-------4-4-4-4-4--|


e----------------6-6-6-------------6-6-6------------|
B----------------6-6-6-------------6-6-6------------|
G----------------7-7-7-------------7-7-7------------|
D--8-8-8-8-8-8-8-8-8-8-8-8-8-8-8-8-8-8-8-8-8-8-8-8--|
A--8-8-8-8-8-8-8-8-8-8-8-8-8-8-8-8-8-8-8-8-8-8-8-8--|
E--6-6-6-6-6-6-6-6-6-6-6-6-6-6-6-6-6-6-6-6-6-6-6-6--|


e------------------------------|
B------------------------------|
G--3--3-------1------1------1--| x2
D--3--3---1-3----1-3----1-3----|
A--1--1------------------------|
E------------------------------|




Verse 1: 

e-------------------------------------------------------|
B-------------------------------------------------------|
G-3--3------1------1------1-3--3-------1------1------1--|
D-3--3--1-3----1-3----1-3---3--3---1-3----1-3----1-3----|
A-1--1----------------------1--1------------------------|
E-------------------------------------------------------|

e-----------------------------------------------|
B-----------------------------------------------|
G-3--3------1------1------1-3--3-------1------1-|
D-3--3--1-3----1-3----1-3---3--3---1-3----1-3---|
A-1--1----------------------1--1----------------|
E-----------------------------------------------|



Chorus:

e--13--11-------------------------------------------------------|
B---------14--14----14--13-13--13----14--13----------14--13-----|
G---------13--13-----------13--13-----------15--15----------15--|
D--------------------------13--13-------------------------------|
A---------------------------------------------------------------|
E---------------------------------------------------------------|
  

    
e--13--11-------------------------------9------8-----6--|
B---------14--14----11-13-11-13-11--------11-----11--6--|
G---------13--13-------------------------------------7--|
D----------------------------------------------------8--|
A----------------------------------------------------8--|
E----------------------------------------------------6--|
  



Break:

e--6-6-6--6--6---6--6-6-6--6--6--|
B--6-6-6--6--6---6--6-6-6--6--6--|
G--7-7-7--7--7---7--7-7-7--7--7--|
D--8-8-8--8--8---8--8-8-8--8--8--|
A--8-8-8--8--8---8--8-8-8--8--8--|
E--6-6-6--6--6---6--6-6-6--6--6--|



e-------------------------------------------------------|
B-------------------------------------------------------|
G-3--3------1------1------1-3--3-------1------1------1--|
D-3--3--1-3----1-3----1-3---3--3---1-3----1-3----1-3----|
A-1--1----------------------1--1------------------------|
E-------------------------------------------------------|



Verse 2: 

e-------------------------------------------------------|
B-------------------------------------------------------|
G-3--3------1------1------1-3--3-------1------1------1--|
D-3--3--1-3----1-3----1-3---3--3---1-3----1-3----1-3----|
A-1--1----------------------1--1------------------------|
E-------------------------------------------------------|

e-----------------------------------------------|
B-----------------------------------------------|
G-3--3------1------1------1-3--3-------1------1-|
D-3--3--1-3----1-3----1-3---3--3---1-3----1-3---|
A-1--1----------------------1--1----------------|
E-----------------------------------------------|



Chorus:

e--13--11-------------------------------------------------------|
B---------14--14----14--13-13--13----14--13----------14--13-----|
G---------13--13-----------13--13-----------15--15----------15--|
D--------------------------13--13-------------------------------|
A---------------------------------------------------------------|
E---------------------------------------------------------------|
  
[ Tab from: http://www.guitaretab.com/r/rolling-stones/16366.html ]
    
e--13--11-------------------------------9------8-----6--|
B---------14--14----11-13-11-13-11--------11-----11--6--|
G---------13--13-------------------------------------7--|
D----------------------------------------------------8--|
A----------------------------------------------------8--|
E----------------------------------------------------6--|


e--6-6-6--6--6---6--6-6-6--6--6--|
B--6-6-6--6--6---6--6-6-6--6--6--|
G--7-7-7--7--7---7--7-7-7--7--7--| x 3
D--8-8-8--8--8---8--8-8-8--8--8--|
A--8-8-8--8--8---8--8-8-8--8--8--|
E--6-6-6--6--6---6--6-6-6--6--6--|




Break:

Guitar 1

e--1-----1----3-1------1-3--|
B-------------------4-------|
G----3-3----------4---------| x4
D---------------------------|
A---------------------------|
E---------------------------|


Guitar 2

e-------------------------------------------------------------------|
B-------------------------------------------------------------------|
G-------------------------------3--------------3--3--------------1--|
D-----------------------1---1-3-------3-5-1----3--3-----3-5-1--3----|
A---------------------1-------------1----------1--1---1-------------|
E---------------1--4------------------------------------------------|

e-----------------------------|
B-----------------------------|
G--3--3--------------1--3--3--|
D--3--3-----3-5-1--3----3--3--|
A--1--1---1-------------1--1--|
E-----------------------------|





e--1--------1-3--|
B----------------|
G----3-3-3-------| x3
D----------------|
A----------------|
E----------------|


e-------------------------------------------------------|
B-------------------------------------------------------|
G-3--3------1------1------1-3--3-------1------1------1--|
D-3--3--1-3----1-3----1-3---3--3---1-3----1-3----1-3----|
A-1--1----------------------1--1------------------------|
E-------------------------------------------------------|



Verse 3: 

e-------------------------------------------------------|
B-------------------------------------------------------|
G-3--3------1------1------1-3--3-------1------1------1--|
D-3--3--1-3----1-3----1-3---3--3---1-3----1-3----1-3----|
A-1--1----------------------1--1------------------------|
E-------------------------------------------------------|

e-----------------------------------------------|
B-----------------------------------------------|
G-3--3------1------1------1-3--3-------1------1-|
D-3--3--1-3----1-3----1-3---3--3---1-3----1-3---|
A-1--1----------------------1--1----------------|
E-----------------------------------------------|

e-------------------------------------------------------|
B-------------------------------------------------------|
G-3--3------1------1------1-3--3-------1------1------1--|
D-3--3--1-3----1-3----1-3---3--3---1-3----1-3----1-3----|
A-1--1----------------------1--1------------------------|
E-------------------------------------------------------|

e-----------------------------------------------|
B-----------------------------------------------|
G-3--3------1------1------1-3--3-------1------1-|
D-3--3--1-3----1-3----1-3---3--3---1-3----1-3---|
A-1--1----------------------1--1----------------|
E-----------------------------------------------|



Chorus:

e--13--11-------------------------------------------------------|
B---------14--14----14--13-13--13----14--13----------14--13-----|
G---------13--13-----------13--13-----------15--15----------15--|
D--------------------------13--13-------------------------------|
A---------------------------------------------------------------|
E---------------------------------------------------------------|
  

    
e--13--11-------------------------------9------8-----6--|
B---------14--14----11-13-11-13-11--------11-----11--6--|
G---------13--13-------------------------------------7--|
D----------------------------------------------------8--|
A----------------------------------------------------8--|
E----------------------------------------------------6--|



Break:

e--6-6-6--6--6---6--6-6-6--6--6--|
B--6-6-6--6--6---6--6-6-6--6--6--|
G--7-7-7--7--7---7--7-7-7--7--7--| 
D--8-8-8--8--8---8--8-8-8--8--8--|
A--8-8-8--8--8---8--8-8-8--8--8--|
E--6-6-6--6--6---6--6-6-6--6--6--|



Outro:

e---------------------------------|
B---------------------------------|
G--3--3---------------------------| x4
D--3--3---------------------------|
A--1--1---------------------------|
E---------------------------------|
 

  
e--6---6---6-6---6---6--4---4-4--|
B--6---6---6-6---8---8--4---4-4--|
G--7---7---7-7---8---8--5---5-5--|
D--8---8---8-8---8---8--6---6-6--| x 6 & Fade Out
A--8---8---8-8---6---6--6---6-6--|
E--6---6---6-6----------4---4-4--|
Related for Jumping Jack Flash tab
Jumping Jack Flash chords by Rolling Stones