Song name
# A B C D E F G H I J K L M N O P Q R S T U V W X Y Z

Rolling Stones - Live With Me tab

The Rolling Stones
Album: Let It Bleed
Song: Live With Me
Year: 1969
Guitarists: Keith Richards, Mick Taylor
Tuning: Standard


This song is one of my favorites off of the album. However, guitar is rather sparse on
it and it isn't difficult to play at all. As usual, the guitars never really play the
same thing twice so just play  alot of variations on the notes given. When it comes to
the Rolling Stones, I can not stress that enough. The guitar line in "End 3" might not
seem fimiliar at first, as I had just noticed it the other day. It's right after the
second chorus before the sax solo in the left speaker. Since the opening bass line
really drives the verses, I have transcribed it for those interested at the bottom of
the tab.

Verse Fig. 1

--2-2--------------------------------------------|
--3-3---2--2-------------------------------------|
--2-2---2--2-------------------------------------|
--0-0---2--2-------------------------------------|
--------0--0-------------------------------------|
-------------------------------------------------|


Verse Riff 1

----------------------------------------------------|
-7brbrbrbrb-----7b--7b--7b--7b--7b~--5----5--7--5---|
-7brbrbrbrb-----7b--7b--7b--7b--7b~--5----5--7--5---|
-----------------------------------7----------------|
----------------------------------------------------|
----------------------------------------------------|

End 1

-------------------------------------------------|
-------------------------------------------------|
----2--2-2------2--2-2---------------------------|
-------2-2---------2-2---------------------------|
-3b----0-0---3b----0-0---------------------------|
-------------------------------------------------|

Chorus (Play variations on notes given)

--------------------------------------------------------------------|
-9-9--9-9-9---12-12--12-12-12---14-14----14-14-14-14-14-14--14------|
-9-9--9-9-9---12-12--12-12-12---14-14----14-14-14-14-14-14--14------|
-9-9--9-9-9---12-12--12-12-12---14-14----14-14-14-14-14-14--14------|
-7-7--7-7-7---10-10--10-10-10---12-12-x--12-12-12-12-12-12--12------|
--------------------------------------------------------------------|

----------------------------------------------------------------------|
-9-9-9-9-9---12-12-12-12-12-12----------------------------------------|
-9-9-9-9-9---12-12-12-12-12-12----2---2---2---2---2-------------------|
-9-9-9-9-9---12-12-12-12-12-12----2---2---2---2---2-------------------|
-7-7-7-7-7---10-10-10-10-10-10-0--0-0-0-0-0-0-0-0-0-------------------|
----------------------------------------------------------------------|

End 2

-------------------------------------------------|
-------------------------------------------------|
-----2---2--2----2---2---------------------------|
---------2--2----2---2---------------------------|
-3b------0--0--0-0-0-0---------------------------|
-------------------------------------------------|


Verse Fig. 2

-2-2-2-2-----------------------------------------|
-3-3-3-3-----------------------------------------|
-2-2----------2---2--2-2-2--2-2------------------|
-0-0--------------2--2-2-2--2-2------------------|
-----------3b-----0--0-0-0--0-0------------------|
-------------------------------------------------|

End 3
--------------------------------------------------|
----2-------0-------3--------2--------2-----------|
------2--------2-------2-------2--------2---------|
--------2--------2--------2------2--------2-------|
-0------------------------------------------------|
--------------------------------------------------|


Opening Bass Line

----------------------------------------------------------------------------------------|
----------------------------------------------------------------------------------------|
----------3-----------5--3---------------------3------------5--3------------3-3--3-3-3--|
-0--3--5-----5--3--5--------5--3--5---5--3--5-----5--3--5----------5--3--5--------------|
Tap to rate this tab
 
# A B C D E F G H I J K L M N O P Q R S T U V W X Y Z