Guitaretab - guitar tabs
Song name
# A B C D E F G H I J K L M N O P Q R S T U V W X Y Z

Rolling Stones - Mixed Emotions tab

Rolling Stones - Mixed Emotions
Album: Forty Licks
Tab by Fruitloops

Intro
-----
Riff 1
	     C      D
	E ------------------------------|
	B ------------------------------|
	G ---5-5-5--7-7-7-7-7-7-7-7-7-7-|	4x
	D ---5-5-5--7-7-7-7-7-7-7-7-7-7-|
	A ---3-3-3--5-5-5-5-5-5-5-5-5-5-|
	E ------------------------------|

Verse 1
-------
Riff 1
	     C      D
	E ------------------------------|
	B ------------------------------|
	G ---5-5-5--7-7-7-7-7-7-7-7-7-7-|	8x
	D ---5-5-5--7-7-7-7-7-7-7-7-7-7-|
	A ---3-3-3--5-5-5-5-5-5-5-5-5-5-|
	E ------------------------------|

Button your lip baby
Button your coat
Let's go out dancing
Go for the throat
Let's bury the hatchet
Wipe out the past
Make love together
Stay on the path

Chorus
------
Riff 2
	     Am		 G	    C		D
	E ------------------------------------------------|
	B ------------------------------------------------|
	G -------------------------5-5-5-5-5--7-7-7-7-7---|	2x
	D ---7-7-7-7-7--5-5-5-5-5--5-5-5-5-5--7-7-7-7-7---|
	A ---7-7-7-7-7--5-5-5-5-5--3-3-3-3-3--5-5-5-5-5---|
	E ---5-5-5-5-5--3-3-3-3-3-------------------------|

You're not the only one
With mixed emotions
You're not the only ship
Adrift on this ocean




Verse 2
-------
Riff 1
	     C      D
	E ------------------------------|
	B ------------------------------|
	G ---5-5-5--7-7-7-7-7-7-7-7-7-7-|	8x
	D ---5-5-5--7-7-7-7-7-7-7-7-7-7-|
	A ---3-3-3--5-5-5-5-5-5-5-5-5-5-|
	E ------------------------------|

This coming and going
Is driving me nuts
This to-ing and fro-ing
Is hurting my guts
So get off the fence
It's creasing your butt
Life is a party
Let's get out and strut

Chorus
------
Riff 2
	     Am		 G	    C		D
	E ------------------------------------------------|
	B ------------------------------------------------|
	G -------------------------5-5-5-5-5--7-7-7-7-7---|	4x
	D ---7-7-7-7-7--5-5-5-5-5--5-5-5-5-5--7-7-7-7-7---|
	A ---7-7-7-7-7--5-5-5-5-5--3-3-3-3-3--5-5-5-5-5---|
	E ---5-5-5-5-5--3-3-3-3-3-------------------------|
[ Tab from: http://www.guitaretab.com/r/rolling-stones/16389.html ]
You're not the only one
With mixed emotions
You're not the only ship
Adrift on this ocean
You're not the only one
That's feeling lonesome
You're not the only one
With mixed emotions

Bridge
------
Riff 3
	     E      D
	E -------------------------------------------|
	B -------------------------------------------|
	G -------------------------------------------|
	D ---2-2-2-2-2-2--4-4-4-4-4-4--5-5-5-5-5-5---|
	A ---2-2-2-2-2-2--4-4-4-4-4-4--5-5-5-5-5-5---|
	E ---0-0-0-0-0-0--2-2-2-2-2-2--3-5-5-5-5-5---|

You're not the only one
You're not the only oooone


Verse 3
-------
Riff 1
	     C      D
	E ------------------------------|
	B ------------------------------|
	G ---5-5-5--7-7-7-7-7-7-7-7-7-7-|	8x
	D ---5-5-5--7-7-7-7-7-7-7-7-7-7-|
	A ---3-3-3--5-5-5-5-5-5-5-5-5-5-|
	E ------------------------------|

Let's grab the world
By the scruff of the neck
And drink it down deeply
Let's love it to death
So button your lip
And button your coat
Let's go out dancing
Let's rock 'n' roll

Chorus
------
Riff 2
	     Am		 G	    C		D
	E ------------------------------------------------|
	B ------------------------------------------------|
	G -------------------------5-5-5-5-5--7-7-7-7-7---|	4x
	D ---7-7-7-7-7--5-5-5-5-5--5-5-5-5-5--7-7-7-7-7---|
	A ---7-7-7-7-7--5-5-5-5-5--3-3-3-3-3--5-5-5-5-5---|
	E ---5-5-5-5-5--3-3-3-3-3-------------------------|

You're not the only one
With mixed emotions
You're not the only ship
Adrift on this ocean
You're not the only one
That's feeling lonesome
You're not the only one
With mixed emotions

With mixed emoooootions (this part only C and D chords after it, complete riff 2 for 1 
and then start the outro)

Outro
-----
Riff 2
	     Am		 G	    C		D
	E ------------------------------------------------|
	B ------------------------------------------------|
	G -------------------------5-5-5-5-5--7-7-7-7-7---|	4x
	D ---7-7-7-7-7--5-5-5-5-5--5-5-5-5-5--7-7-7-7-7---|
	A ---7-7-7-7-7--5-5-5-5-5--3-3-3-3-3--5-5-5-5-5---|
	E ---5-5-5-5-5--3-3-3-3-3-------------------------|

You're not the only one
You're not the only one
You're not the only one

Any comments or corrections mail me to tommy_basket@hotmail.com
Related for Mixed Emotions tab
Mixed Emotions chords by Rolling Stones